Song name
# A B C D E F G H I J K L M N O P Q R S T U V W X Y Z

Misc Unsigned Bands - Cunt Wipes - Kitty Revenge tab

----------------------------------------------------------------------------
			     KITTY REVENGE - Cunt Wipes
----------------------------------------------------------------------------
Tabbed by: LeoandLoeb
Email: 

Tuning:D A D G B E
~ means artificial/pinch harmonic

Metal riff
e|-------------------------------------------------------------------------|
B|-------------------------------------------------------------------------|
G|-------------------------------------------------------------------------|
D|-3-4-1-3-------3-4-1-3---------------------------------------------------|
A|-3-4-1-3-4-3-1-3-4-1-3-~3------------------------------------------------|
E|-3-4-1-3-------3-4-1-3---------------------------------------------------|

chinese thing
e|-555533003---------------------------------------------------------------|
B|-555533003---------------------------------------------------------------|
G|-------------------------------------------------------------------------|
D|-------------------------------------------------------------------------|
A|-------------------------------------------------------------------------|
E|-------------------------------------------------------------------------|

last measure
e|-------------------------------------------------------------------------|
B|-------------------------------------------------------------------------|
G|-------------------------------------------------------------------------|
D|-3-4-1-3-333333----------------------------------------------------------|
A|-3-4-1-3-333333-~4-------------------------------------------------------|
E|-3-4-1-3-333333----------------------------------------------------------|




| /  slide up
| \  slide down
| h  hammer-on
| p  pull-off
| ~  vibrato
| +  harmonic
| x  Mute note
============================================================================
Tap to rate this tab
# A B C D E F G H I J K L M N O P Q R S T U V W X Y Z