Song name
# A B C D E F G H I J K L M N O P Q R S T U V W X Y Z

Misc Unsigned Bands - Table For Four - Identity tab

Artist: Table For Four
Song Title: Identity

Verse
Guitar 1
       D        D/A      A/A#  
e -----5--------5--------5-----|
B -----5--------5--------5-----|
G -----7--------7--------7-----|
D -----7--------7--------7-----|
A -----5--------0--------5-----|
E -----------------------6-----|

Guitar 2 picking



Chorus
1st Guitar
       D        F        G	  A#	A
e -----5--------8--------10------13----12---|
B -----5--------8--------10------13----12---|
G -----7--------10-------12------15----14---|
D -----7--------10-------12------15----14---|
A -----5--------8--------10------13----12---|
E ------------------------------------------|

2nd Guitar

       D        F        G	  A#	A
e -----5--------8--------10-----6-----5---|
B -----5--------8--------10-----6-----5---|
G -----7--------10-------12-----7-----6---|
D -----7--------10-------12-----8-----7---|
A -----5--------8--------10-----8-----7---|
E ------------------------------6-----8---|


Middle 
Guitar 1

       G     A#    A
e -----3-----6-----5---|
B -----3-----6-----5---|
G -----4-----7-----6---|
D -----5-----8-----7---|
A -----5-----8-----7---|
E -----3-----6-----8---|

Guitar 2
      G	      A#    A
e ----10------13----12---|
B ----10------13----12---|
G ----12------15----14---|
D ----12------15----14---|
A ----10------13----12---|
E -----------------------|


Structure

Intro

Verse 1

(8 bars… verse chords)

Verse 2

Chorus

Verse 3

Verse 4 (solo)

Chorus

Middle 

(wait 12 beats)

Chorus





Tap to rate this tab
 
# A B C D E F G H I J K L M N O P Q R S T U V W X Y Z