Song name
# A B C D E F G H I J K L M N O P Q R S T U V W X Y Z

Misc Unsigned Bands - Turning Point - Wrong Way tab

e|---------------------------------------------------------------------------|
B|---------------------------------------------------------------------------|
G|---------------------------------------------------------------------------|
D|----------5-6-5--------5-6-5--------5-6-5--------5-6-5--------5-6-5--------|
A|---------------------------------------------------------------------------|
E|---0-0--5-------0-0--3-------0-0--5-------0-0--3-------0-0--5-------0-0--3-|

e|--------------------------------------------------------------------------|
B|--------------------------------------------------------------------------|
G|--------------------------------------------------------------------------|
D|-5-6-5--------5-6-5--------5-6-5------------------------------------------|
A|--------------------------------------------------------------------------|
E|-------0-0--5-------0-0--3-------0-0--5---0-0--3---0-0--5---0-0--3---0-0--|

e|--------------------------------------------------------------------------|
B|--------------------------------------------------------------------------|
G|-----------6-5-6----------------------------------------------------------|
D|--------------------------------------------------------------------------|
E|5---0-0--3-------5--------------------------------------------------------|


plaese email me at sheker56@yahoo.com
Tap to rate this tab
# A B C D E F G H I J K L M N O P Q R S T U V W X Y Z