Guitaretab - guitar tabs
Song name
# A B C D E F G H I J K L M N O P Q R S T U V W X Y Z

Misc Unsigned Bands - Knuckle Puck - Ducks Fly Together tab

Ducks Fly Together
Knuckle Puck (VA)
www.myspace.com/knucklepuckva

Tuning - drop D
Benny Espena
 
  
  Both 
 |-----------------|------------------|---------------|--------------|
 |-----------------|------------------|---------------|--------------|
 |-----------------|------------------|---------------|--------------|
 |--------7-8-10-8-|-0000-8--10-12-10-|-0000-1012-13-|-12-10-8-10-0-|
 |-0-0000-7-8-10-8-|-0000-8--10-12-10-|-0000-1012-13-|-12-10-8-10-0-|
D|-0-0000-7-8-10-8-|-0000-8--10-12-10-|-0000-10-12-13-|-12-10-8-10-0-|

Riff 1
  Guitar 1
 |-----------------|------------------|---------------|-------------|
 |-----------------|------------------|---------------|-------------|
 |-----------------|------------------|---------------|-------------|
 |--------7-8-10-8-|-0000-8--10-12-10-|-0000-1012-13-|-12-10-7-8-0-|x4
 |-0-0000-7-8-10-8-|-0000-8--10-12-10-|-0000-1012-13-|-12-10-7-8-0-|
D|-0-0000-7-8-10-8-|-0000-8--10-12-10-|-0000-10-12-13-|-12-10-7-8-0-|

  Guitar 2
 |------------------|-----------------|-------------------------|
 |------------------|-----------------|-------------------------|
 |-7------7/9-10-9--|------9-10-12-10-|-10-12----10-9--7--5-7--|x4
 |-x------X/x-x--x--|------x-x--x--x--|-x--x-----x--x-x-x--x--|
 |-5-0000-5/7-8--7--|-0000-7-8--10-8--|-8--10---8--7--5-3--5--|
D|---0000-----------|-0000------------|-------------------------|

Riff 2
  Guitar 1
 |------------------|------------------|-------------------------|
 |------------------|------------------|-------------------------|
 |-10----10/12-14-12|------12-14-15-14-|-14-12----10-9--10-9-10-|x4
 |-x------x/x--x--x-|------x--x--x--x--|-x--x-----x--x-x-x--x--|
 |-8-0000-8/10-12-10|-0000-10-12-13-12-|-12-10---8--7--8-7--8--|
D|---0000-----------|-0000-------------|-------------------------|

  Guitar 2
 |------------------|-----------------|-------------------------|
 |------------------|-----------------|-------------------------|
 |-7------7/9-10-9--|------9-10-12-10-|-10-12----10-9--7--5-7--|x4
 |-x------x/x-x--x--|------x-x--x--x--|-x--x-----x--x-x-x--x--|
 |-5-0000-5/7-8--7--|-0000-7-8--10-8--|-8--10---8--7--5-3--5--|
D|---0000-----------|-0000------------|-------------------------|

Riff 3
  Guitar 1
 |----------|---------------------------|
 |----------|---------------------------|
 |-7--------|-10-----9------14------12--|
 |-x--------|-x------x------x-------x---|x1
 |-5--------|-8------7------12------10--|
D|----------|---------------------------|
 

  Guitar 2
 |----------|---------------------------|
 |----------|---------------------------|
 |-7--------|-7------5------10------9---|
 |-x--------|-x------x------x-------x---|x1
 |-5--------|-5------3------8-------7---|
D|----------|---------------------------|
[ Tab from: http://www.guitaretab.com/m/misc-unsigned-bands/89825.html ]
riff 4
  Guitar 1
 |---------------------------------------------------------|
 |---------------------------------------------------------|
 |-1010101010101010--9-9-9-9-9-9-9-9--1010101010101010-----|
 |-x-x-x-x-x-x-x-x---x-x-x-x-x-x-x-x--x-x-x-x-x-x-x-x------|
 |-8-8-8-8-8-8-8-8---7-7-7-7-7-7-7-7--8-8-8-8-8-8-8-8------|
D|---------------------------------------------------------|

 |---------------------------------------------------------|
 |---------------------------------------------------------|
 |--14-14-14-14-14-14-14-14--12-12-12-12-12-12-12-12-------|x4
 |--x--x--x--x--x--x--x--x---x--x--x--x--x--x--x--x--------|
 |--12-12-12-12-12-12-12-12--10-10-10-10-10-10-10-10-------|
D|---------------------------------------------------------|

  Guitar 2
 |----------------------------------------------------------|
 |----------------------------------------------------------|
 |-7-7-7-7--7-7-7-7---5-5-5-5--5-5-5-5---7-7-7-7--7-7-7-7---|
 |-x-x-x-x--x-x-x-x---x-x-x-x--x-x-x-x---x-x-x-x--x-x-x-x---|
 |-5-5-5-5--5-5-5-5---3-3-3-3--3-3-3-3---5-5-5-5--5-5-5-5---|
D|----------------------------------------------------------|


 |----------------------------------------------------|
 |----------------------------------------------------|
 |---10101010-10101010--9-9-9-9-9-9-9-9---------------|
 |---x-x-x-x--x-x-x-x---x-x-x-x-x-x-x-x---------------|x4
 |---8-8-8-8--8-8-8-8---7-7-7-7-7-7-7-7---------------|
D|----------------------------------------------------|

Repeat from beginning
Riff 1
Riff 2
Riff 3

  Breakdown    
 |------------------------------|
 |------------------------------|
 |-5----------------------------|
 |-x----------------------------|
 |-7------0000-0000-------------|
D|--------0000-0000-------------|

 |------------------------|-------------|-------------|
 |------------------------|-------------|-------------|
 |--5----5-7--------------|-------------|-------------|
 |--x----x-x--------------|-------------|-------------|x1
 |--3----3-5--0-0-0-------|-0-0-0-------|-0-0-0-------|
D|--0----0-0-0-0-0--rest-|-0-0-0--rest-|-0-0-0--rest-|

 |--------------------------|-----------------|-----------------|
 |--------------------------|-----------------|-----------------|
 |-5---5-7------------------|-----------------|-----------------|
 |-x---x-x------------------|-----------------|-----------------|x2
 |-3---3-5--0-0-0-0-0-0-0-0-|-0-0-0-0-0-0-0-0-|-0-0-0-0-0-0-0-0-|
D|-0---0-0-0-0-0-0-0-0-0-0-|-0-0-0-0-0-0-0-0-|-0-0-0-0-0-0-0-0-|

 |--------------------------|-------------|-------------|
 |--------------------------|-------------|-------------|
 |--5------5-7--------------|-------------|-------------|
 |--x------x-x--------------|-------------|-------------|x4
 |--3------3-5--0-0-0-------|-0-0-0-------|-0-0-0-------|
D|--0------0-0-0-0-0--rest-|-0-0-0--rest-|-0-0-0--rest-|
Related for Knuckle Puck - Ducks Fly Together tab