Song name
# A B C D E F G H I J K L M N O P Q R S T U V W X Y Z

Misc Unsigned Bands - Solus - Best Days tab

Help us improve GuitareTab! Take a short survey!
Best Days - Solus
Tabbed by - Blaine Henry

x = muted strum
< = volume swell up
> = volume swell down
^ = wah pedal in treble position
v = wah pedal in bass position
h = hammer-on

Intro/verse
|-2-2-xxxx-0-0-xxxx-2-2-xxxx-0-0-xxxx-|
|-4-4-xxxx-3-3-xxxx-2-2-xxxx-0-0-xxxx-|
|-4-4-xxxx-2-2-xxxx-2-2-xxxx-1-1-xxxx-|
|-4-4-xxxx-0-0-xxxx-2-2-xxxx-2-2-xxxx-|
|-2-2-xxxx-----xxxx-0-0-xxxx-2-2-xxxx-|
|-2-2-xxxx-----xxxx-----xxxx-0-0-xxxx-|

Intro/verse 2
This is a little Eddie Van Halen trick.
What you do is turn the volume all the way 
down and hammer on the chord and swell the 
volume.  He dose this in "Cathedral."
  <     >  <     >  <     >  <     >
|h2----------------h2-----------------|
|h4-------h3-------h2-----------------|
|h4-------h2-------h2-------h1--------|
|h4----------------h2-------h2--------|
|h2-------------------------h2--------|
|h2-----------------------------------|

Intro/verse 3
This is the wah pedal portion.
  ^v^v    ^v^v      ^v^v     ^v^v 
|-2-2-----0-0-------2-2------0-0------|
|-4-4-----3-3-------2-2------0-0------|
|-4-4-----2-2-------2-2------1-1------|
|-4-4-----0-0-------2-2------2-2------|
|-2-2---------------0-0------2-2------|
|-2-2------------------------0-0------|

chorous
|-----xxxx-----xxxx-----xxxx-----xx---|
|-----xxxx-----xxxx-----xxxx-----xx---|
|-----xxxx-----xxxx-----xxxx-----xx---|
|-4-4-xxxx-7-7-xxxx-7-7-xxxx-----xx---|
|-2-2-xxxx-5-5-xxxx-7-7-xxxx-2-2-xx---|
|-x-x-xxxx-x-x-xxxx-5-5-xxxx-0-0-xx---|

Song order:
Bass intro		   x2
Intro/verse 2		   x4
Intro/verse 1 & 2          x4
Intro/Verse 1 & 2 w/ words x4
Chorous	                   x4
Intro/Verse 1 & 3 w/ words x4
Chorous	                   x4
Solo			   x8 (chorus riff)
Chourous		   x4
Outro			   x1

Hey everyone check out this page!  www.myspace.com/solustheband
Related for Solus - Best Days tab