Song name
# A B C D E F G H I J K L M N O P Q R S T U V W X Y Z

Misc Unsigned Bands - Dellwood - First Impulse tab

Dellwood - First Impulse

Intro:
E-----------2---------------2-------|
B------4-----4---------4-----4------|
G-3-3---3--------4-4---4------------|
D-----------------------------------|
A-----------------------------------|
E-----------------------------------|

Verse:
Lead:
E-2-
B---
G---
D---
A---
E---

Rhythm:
He actually palm mutes and then lets it ring out:

E-----------|
B-----------|
G-8-6-3-4---|
D-8-6-3-4---|
A-6-4-1-2---|
E-----------|

Chorus:
Lead:
Not exact, but something like this:

E----------------------|
B----------------------|
G-3-4-3-6-3-4-3--------|
D------------------4---|
A----------------------|
E----------------------|

Rhythm:
E--------------|
B--------------|
G----6--4--4---|
D-4--6--4--4---|
A-4--4--2--2---|
E-2------------|

The ending part is basically the chorus with different lyrics, this is a fun song from 
old Minnesota band Dellwood.
Tap to rate this tab
# A B C D E F G H I J K L M N O P Q R S T U V W X Y Z