Song name
# A B C D E F G H I J K L M N O P Q R S T U V W X Y Z

Misc Unsigned Bands - Oceans Of Chaos - Distorted Information On A Plane Crash tab

----------------------------------------------------------------------------------|
----------------------------------------------------------------------------------|
---------------3v---------------4v------------------------------------------------|
-2-343-x-x-343----2-2-x-x-2-x-x-----2-x-x-2-x-x-2--2-x-x-2-x-x-2---5-x-x-5-x-x----|
-2-----x-x--------2-2-x-x-2-x-x-----2-x-x-2-x-x-2--2-x-x-2-x-x-2---5-x-x-5-x-x----|
-0-----x-x--------0-0-x-x-0-x-x-----0-x-x-0-x-x-0--0-x-x-0-x-x-0---3-x-x-3-x-x----|

----------------------------------------------------------------------------------|
----------------------------------------------------------------------------------|
------------------7---7-7-7-7--6-4v-----------------------------------------------|
-5-5-x-x-5-x-x-5--7---7-7-7-7--6--------------------------------------------------|
-5-5-x-x-5-x-x-5--5---5-5-5-5--4--------------------------------------------------|
-3-3-x-x-3-x-x-3------------------------------------------------------------------|
Tap to rate this tab
# A B C D E F G H I J K L M N O P Q R S T U V W X Y Z