Song name
# A B C D E F G H I J K L M N O P Q R S T U V W X Y Z

Misc Unsigned Bands - Oceans Of Chaos - I Have No Idea tab

-------------------------------------------------------------------------------
	I Have no Idea (version 2) - Oceans of Chaos
-------------------------------------------------------------------------------
Tabbed by: Justin Spann


Tuning: DROP D

still adding way more

e|---------------------------------------------------------------------------|
B|---------------------------------------------------------------------------|
G|-----------------3v------------------------------------------43-4v---------|
D|-2-343-x-x-343-x----2-2-x-x-2-x-x-2-------2-x-x-2-x-x-2-x-x----------------|
A|-2-----x-x-----x----2-2-x-x-2-x-x-2-------2-x-x-2-x-x-2-x-x----------------|
E|-0-----x-x-----x----0-0-x-x-0-x-x-0-------0-x-x-0-x-x-0-x-x----------------|

Tap to rate this tab
# A B C D E F G H I J K L M N O P Q R S T U V W X Y Z