Song name
# A B C D E F G H I J K L M N O P Q R S T U V W X Y Z

Misc Unsigned Bands - The Massacre Scene - Make Or Break tab

Make or Break 
The Massacre Scene

Intro-Rotary effect
|-------------------------------------------------------------------|
|-------------------------------------------------------------------|
|-------------------------------------------------------------------|
|----------7---------------7---------------5---------------5--------|
|------5-----5---5-----5-----5---0-----3-----3---3-----3-----3---0--|
|--5-5---5-----5---5-5---5-----5---3-3---3-----3---3-3---3-----3----|

|---------------------------------------------------------------------|
|---------------------------------------------------------------------|
|---------------------------------------------------------------------|
|----------8---------------8---------------7---------------7----------|
|------8-----8---8-----8-----8---8-----8-----8---8-----8-----8-7h8p7--|
|--8-8---8-----8---8-8---8-----8---7-7---7-----7---7-7---7------------|

Intro-Distortion
|----------------------|
|----------------------|
|----------------------|
|--5----3----8----7----|
|--5----3----8----8----|
|--5----3----8----7----|

Breakdown 1
|------------------------------------------------------------|
|------------------------------------------------------------|
|------------------------------------------------------------|x5
|--------------------------------------------8-7-----7-6-----|
|--0000000000--000--0-0-0--0000000000----5/8-----4/7---------|
|--0000000000--000--0-0-0--0000000000------------------------|

Breakdown 2
|-------------------------------------------|
|-------------------------------------------|
|-------------------------------------------|
|-------------------------------------------|
|--8-5-7-0-2-3-2-0--------8-5-7-0-2-3-2-0---|
|--8-5-7-0-2-3-2-0--------8-5-7-0-2-3-2-0---|

|------------------------------------------------------------------------------|
|------------------------------------------------------------------------------|
|------------------------------------------------------------------------------|
|------------------------------------------------------------------------------|
|--8-5-7-0-2-3-2-0--000--000-8-5-7-0-2-3-2-0--5h8p5h8p5h8p5h8--4h7p4h7p4h7p4h7-|----------
|--8-5-7-0-2-3-2-0--000--000-8-5-7-0-2-3-2-0-----------------------------------|
x4

Breakdown 3
|-----------|
|-----------|
|-----------|x10
|-----------|
|--0-6-1-0--|
|--0-6-1-0--|

Riff 1
|-------------------------------------------------------------------|
|-------------------------------------------------------------------|
|-------------------------------------------------------------------|x4
|-------------------------------------------------------------------|
|-------------------------------------------------------------------|
|--333333333333333322222222222222226666666666666665555555544444444--|

Riff 2
|-----------------------------------------------------------------------|
|-----------------------------------------------------------------------|
|-----------------------------------------------------------------------|
|-----------------------------------------------------------------------|
|------------------------5h7h8-----3h5h7--------------------------------|
|--00000000000000000-000-------000--------000000000000000-333222666555--|

Breakdown 4
|-------------------------------------------|
|-------------------------------------------|
|-------------------------------------------|
|-------------------------------------------|
|--3-2-6-5-0-0000-00-0-3-2-6-5-0-0000-00----|
|--3-2-6-5-0-0000-00-0-3-2-6-5-0-0000-00----|

Breakdown 5/Outro
|--------------------|
|--------------------|
|--------------------|
|--------------------|
|--3322665500332211--|
|--3322665500332211--|
pm...................

End
|---------------|
|---------------|
|---------------|
|--0--0--0~~~~--|
|--0--0--0~~~~--|
|--0--0--0~~~~--|






Tap to rate this tab
 
# A B C D E F G H I J K L M N O P Q R S T U V W X Y Z