Song name
# A B C D E F G H I J K L M N O P Q R S T U V W X Y Z

Misc Unsigned Bands - Pancake Eatng Freaks - Can I Get Away tab

Here Is Our Fave Band Ever WOOO !
Email Me If There Is Any Prbs.

trivium-addicted@hotmail.co.uk

Intro - ( wait For 3 hits on snare)

Key - ~ - let ring
      x - Palm Mute

e|----555-22-333-22-00-| (x 8)
b|-333-----------------|
g|---------------------|
d|---------------------|
a|---------------------|
e|---------------------|

Verse 1

e|---------------------| (x 6)
b|---------------------|
g|---------------------|
d|-7-xx-7-xx-7---------|
a|-7-xx-7-xx-7---------|
e|-5 xx-5-xx-5---------|

Pre Chorus

e|---------------------|Listen For Timing
b|---------------------|
g|---------------------|
d|9-7-5~---------------|
a|9-7-5~---------------|
e|7-5-3~---------------|

Chorus

e|-------------------------|(x 4)
b|-------------------------|
g|-------------777777------|
d|999999-55555-777777777777|
a|999999-55555-555555777777|
e|777777-33333-------555555|

Interlude 1

e|----555-22-333-22-00-| (x 4)
b|-333-----------------|
g|---------------------|
d|---------------------|
a|---------------------|
e|---------------------|

Verse 2

e|---------------------| (x 6)
b|---------------------|
g|---------------------|
d|-7-xx-7-xx-7---------|
a|-7-xx-7-xx-7---------|
e|-5 xx-5-xx-5---------|

Pre Chorus

e|---------------------|Listen For Timing
b|---------------------|
g|---------------------|
d|9-7-5~---------------|
a|9-7-5~---------------|
e|7-5-3~---------------|

Chorus

e|---------------------------| (x 4)
b|---------------------------|
g|-------------777777--------|
d|999999-55555-777777777777-9|
a|999999-55555-555555777777-9|
e|777777-33333-------555555-7|

Interlude 2 Short Drum Solo.

Listen For Timing And Pickslide While Holding 3rd Fret On Low E String

Then...

Chorus

e|-------------------------|(x 8)
b|-------------------------|
g|-------------777777------|
d|999999-55555-777777777777|
a|999999-55555-555555777777|
e|777777-33333-------555555|

Outro

e|-------------------------|
b|-------------------------|
g|---------7~--------------|
d|-9~--5~--7~-7~-----------|
a|-9~--5~--5~-7~-----------|
e|-7~--3~-----5~-----------|

Thats It Everyone Have Fun And Enjoy Yours Truly Mr. David <3
Tap to rate this tab
 
# A B C D E F G H I J K L M N O P Q R S T U V W X Y Z