Song name
# A B C D E F G H I J K L M N O P Q R S T U V W X Y Z

Misc Unsigned Bands - Overkill - Ill Sleep With Anything Acoustic tab

VERSE (x2)
e|--------------|--------------|--------------|--------------|
B|-333333333333-|--------------|-333333333333-|--------------|
G|-444444444444-|--------------|-444444444444-|--------------|
D|-444444444444-|-444444444444-|-444444444444-|-222222222222-|
A|-222222222222-|-444444444444-|-222222222222-|-333333333333-|
E|--------------|-222222222222-|--------------|-000000000000-|

CHORUS                                        (last time)
e|----|----|------|-----|----|----|------|----|-----|
B|----|----|------|-----|----|----|------|----|-----|
G|----|-77-|-6666-|-444-|----|----|-7777-|-22-|-222-|
D|-44-|-77-|-6666-|-444-|-44-|-77-|-7777-|-22-|-222-|
A|-44-|-55-|-4444-|-222-|-44-|-77-|-5555-|-00-|-000-|
E|-22-|----|------|-----|-22-|-55-|------|----|-----|

INTERLUDE
e|-------------------------------------------------------------------------
B|-------------------------------------------------------------------------
G|--------------------------------------------------------------------7-22-
D|--------------------0---0---0-----7-7-5-4---------2---------7---7/9---22-
A|---4-2-0-2-4-5-4--7---5---4-----5---------5-4-2h4-------------5-------00-
E|-2----------------------------3---------------------3--2-4-5-------------

END
e|----|----|------|-----|----|----|----
B|----|----|------|-----|----|----|----
G|----|-77-|-6666-|-444-|----|----|----
D|-44-|-77-|-6666-|-444-|-44-|-66-|-55~
A|-44-|-55-|-4444-|-222-|-44-|-66-|-55~
E|-22-|----|------|-----|-22-|-44-|-77~
Tap to rate this tab
# A B C D E F G H I J K L M N O P Q R S T U V W X Y Z