Song name
# A B C D E F G H I J K L M N O P Q R S T U V W X Y Z

Misc Unsigned Bands - The Nukes - System Failure tab

This song is by the Nukes. (Currently an Unsigned band from Irthlingborough - Northamptonshire)
This tab is 100% correct. I know this because I wrote the song!

For more information on our Gig dates or what ever.. my E.mail address is...

Im-confused@hotmail.co.uk


Intro

E|-----------------------------------|
B|-----------------------------------|
G|-----------------------------------|
D|----10------6--------13------8-----|
A|--10--10---6-6-----13--13---8-8----|   X4
E|-8--------4------11--------6-------|

Verse

E|---------------------------------------------------|
B|---------------------------------------------------|
G|---------------------------------------------------|
D|----10----------6------------13----------8---------|
A|--10--10--(X2)-6-6--(X2)---13--13--(X2)-8-8---(X2)-|
E|-8------------4----------11------------6-----------|


E|-----------------------------------------------------|
B|-----------------------------------------------------|
G|-----------------------------------------------------|
D|----10----------6------------13----------9~----------|
A|--10--10--(X2)-6-6--(X2)---13--13--(X2)--9~----------|
E|-8------------4----------11--------------7~----------|


Chorus


E|---------------------------------------------------|
B|---------------------------------------------------|
G|---------------------------------------------------|
D|-1010101010-66666--1313131313--88888---------------|  (X3)
A|-1010101010-66666--1313131313--88888---------------|
E|-8-8-8-8-8--44444--1111111111--66666---------------|


E|---------------------------------------------------|
B|---------------------------------------------------|
G|---------------------------------------------------|
D|-1010101010-66666--1313131313---9~-----------------|
A|-1010101010-66666--1313131313---9~-----------------|
E|-8-8-8-8-8--44444--1111111111---7~-----------------|


Bridge

E|---------------------------------------------------|
B|---------------------------------------------------|
G|---------------------------------------------------|
D|------22222-33333-22-2h3p2h3p2---------------------|
A|-33333---------------------------------------------|
E|---------------------------------------------------|

Solo


E|---------------------------------------------------|
B|---------------------------------------------------|
G|--99999---555h7p5h7--1212121212--777h9p7h9p7-------|
D|---------------------------------------------------|
A|---------------------------------------------------|
E|---------------------------------------------------|

E|---------------------------------------------------|
B|---------------------------------------------------|
G|--99999---555h7p5h7--1212121212--6^----------------|
D|---------------------------------------------------|
A|---------------------------------------------------|
E|---------------------------------------------------|

Outro


E|---------------------------------------------------|
B|---------------------------------------------------|
G|---------------------------------------------------|
D|----10----------6------------13----------8---------|
A|--10--10--(X2)-6-6--(X2)---13--13--(X2)-8-8---(X2)-|
E|-8------------4----------11------------6-----------|


E|----------------------------------------------------|
B|----------------------------------------------------|
G|----------------------------------------------------|
D|----10----------6-------------3---------3~----------|
A|--10--10--(X2)-6-6--(X2)----3--3--(X5)--3~----------|
E|-8------------4-----------1-------------1~----------|


Order

-Intro
-Verse
-Chorus
-Verse
-Chorus
-Bridge
-Solo
-Outro
Tap to rate this tab
# A B C D E F G H I J K L M N O P Q R S T U V W X Y Z