Song name
# A B C D E F G H I J K L M N O P Q R S T U V W X Y Z

Misc Unsigned Bands - Mind Over Matter - Just One Smile tab

Help us improve GuitareTab! Take a short survey!
intro: (Pick through)
    (EM)     (Dsus)     (EM)     (Dsus)    
e|----0----|----0----|----0----|----0----|
B|----0----|----3----|----0----|----3----|
G|----0----|----2----|----0----|----2----|
D|----2----|----0----|----2----|----0----|
A|----2----|----x----|----2----|----x----|
E|----0----|----x----|----0----|----x----|

Verse 1:
   (E) (D)   (C) (D)
e|--x---x--|--x---x--|
B|--x---x--|--x---x--|
G|--x---2--|--x---2--|
D|--x---0--|--x---0--|
A|--2---x--|-10---x--|
E|--0---x--|--8---x--|

(short instrument break) 

Verse 2:
  (E) (D)   (C) (D)
e|--x---x--|--x---x--|
B|--x---x--|--x---x--|
G|--x---2--|--x---2--|
D|--x---0--|--x---0--|
A|--2---x--|-10---x--|
E|--0---x--|--8---x--|


Chorus: 
     (G)       (D)       (A)     (E) (F)
e|----x----|----x----|----x----|--x---x--|
B|----x----|----x----|----x----|--x---x--|
G|----x----|----2----|----x----|--x---x--|
D|----x----|----0----|----2----|--x---x--|
A|----5----|----x----|----0----|--2---3--|
E|----3----|----x----|----x----|--0---1--|
     (G)       (D)       (A)       (F)       (G)       (A)
e|----x----|----x----|----x----|----x----|----x----|----x----|
B|----x----|----x----|----x----|----x----|----x----|----x----|
G|----x----|----2----|----x----|----x----|----x----|----x----|
D|----x----|----0----|----2----|----x----|----x----|----2----|
A|----5----|----x----|----0----|----3----|----5----|----0----|
E|----3----|----x----|----x----|----1----|----3----|----x----|

Verse 3:
   (E) (D)   (C) (D)
e|--x---x--|--x---x--|
B|--x---x--|--x---x--|
G|--x---2--|--x---2--|
D|--x---0--|--x---0--|
A|--2---x--|-10---x--|
E|--0---x--|--8---x--|

Chorus:
     (G)       (D)       (A)     (E) (F)
e|----x----|----x----|----x----|--x---x--|
B|----x----|----x----|----x----|--x---x--|
G|----x----|----2----|----x----|--x---x--|
D|----x----|----0----|----2----|--x---x--|
A|----5----|----x----|----0----|--2---3--|
E|----3----|----x----|----x----|--0---1--|
     (G)       (D)       (A)       (F)       (G)       (A)
e|----x----|----x----|----x----|----x----|----x----|----x----|
B|----x----|----x----|----x----|----x----|----x----|----x----|
G|----x----|----2----|----x----|----x----|----x----|----x----|
D|----x----|----0----|----2----|----x----|----x----|----2----|
A|----5----|----x----|----0----|----3----|----5----|----0----|
E|----3----|----x----|----x----|----1----|----3----|----x----|

End: (pick through)
    (EM)
e|----0----|
B|----0----|
G|----0----|
D|----2----|
A|----2----|
E|----0----|
Related for Mind Over Matter - Just One Smile tab