Song name
# A B C D E F G H I J K L M N O P Q R S T U V W X Y Z

Misc Unsigned Bands - Emerald Death - Death To Us All tab

HEY!, this is the intro to my band's first song!!
We are called "Emerald Death" and were fuckin sick!!!
We play hard, party harder, AND FUKKIN RIP RIFFS LIKE NO ONE ELSE!!!
but this is only my par of the song... ill update it when i have time bitch!

                  |**tuning-standard**|

     |**Play with ditortion, and the treble and gan turned up!**|

e|---------------------------------------------------|
B|---------------------------------------------------|
G|-----------------88777777--------------------------|*(play only first time)
D|--9--------9999998877777777------------------------|
A|--9--------9999996655555577------------------------|play the rest x4
E|--7~^^^----777777--------55------------------------| (as fast you can!)
   (''''')*       
let the first note ring, then bend it multiple times...(only the "7")

e|---------------------------------------------------|
B|---------------------------------------------------|
G|--------44333333-----------------------------------|play x3
D|--5555554433333333---------------------------------|
A|--5555552211111133---------------------------------|
E|--333333--------11---------------------------------|

|**verse**|
e|---------------------------------------------------|
B|---------------------------------------------------|
G|---------------------------------------------------|
D|------------------99999xx-77777xx------------------|play x2
A|--99999xx-77777xx-7777777-5555555------------------|
E|--7777777-5555555----------------------------------|
    .....   .....   .....   .....

|**pre-chorus**|
e|---------------------------------------------------|
B|---------------------------------------------------|
G|---------------------------------------------------|
D|---------------------------------------------------|play x2
A|--12-12-12-12-12-12\\11-11//9-9-9-9-9-9\\10-10~~~~*|
E|--10-10-10-10-10-10\\9--9-//7-7-7-7-7-7\\8--8-~~~~*|
   *let this last note rin for four counts...

the rest is on its way... but in the mean time..TRY this, Its so sweet!

|^-bend|  
|.-Palm mute|
|x-mute note|
|~-let ring|

feel free to email me at jeffislegendary@hotmail.com
Tap to rate this tab
 
# A B C D E F G H I J K L M N O P Q R S T U V W X Y Z