Song name
# A B C D E F G H I J K L M N O P Q R S T U V W X Y Z

Misc Unsigned Bands - Last Promise - Burning tab

Band: Last Promise
Song: Burnin'
Album: XII [EP]
Tabbed by: LP_Guitarist

Intro [Lead Clean] 
[strumming pattern for intro/chorus/solo is down, up, up, up, up]
E|---------------------------------------------|
B|---------------------------------------------|
G|---------------------------------------------| 
D|-7-7--7-7--7-7-7--7-7--7-3-3--3-3-3/5-5--5-5-| x2
A|-5-5--5-5--5-5-5--5-5--5-1-1--1-1-1/3-3--3-3-| 
E|-5-5--5-5--5-5-5--5-5--5-1-1--1-1-1/3-3--3-3-|
   

Intro [Rhythme]
E|---------------------------------|
B|---------------------------------|
G|---------------------------------| 
D|-3-3-3-3-3-3-3-3-5-5-5-5-5-5-5-5-|
A|-1-1-1-1-1-1-1-1-3-3-3-3-3-3-3-3-|
E|-1-1-1-1-1-1-1-1-3-3-3-3-3-3-3-3-|
pm . . . . . . . . . . . . . . . .

Intro [Lead]
E|---------------------------------------------|  E|---------------------|
B|---------------------------------------------|  B|-/15~~~-----18-17----|
G|---------------------------------------------|  G|-------17~~~------17-|x2
D|-7-7--7-7--7-7-7--7-7--7-3-3--3-3-3/5-5--5-5-|x2D|---------------------|
A|-5-5--5-5--5-5-5--5-5--5-1-1--1-1-1/3-3--3-3-|  A|---------------------|
E|-5-5--5-5--5-5-5--5-5--5-1-1--1-1-1/3-3--3-3-|  E|---------------------|

Intro [Rhythme]
E|---------------------------------------------|
B|---------------------------------------------|
G|---------------------------------------------| 
D|-7-7--7-7--7-7-7--7-7--7-3-3--3-3-3/5-5--5-5-| x4
A|-5-5--5-5--5-5-5--5-5--5-1-1--1-1-1/3-3--3-3-| 
E|-5-5--5-5--5-5-5--5-5--5-1-1--1-1-1/3-3--3-3-|

Verse [Lead]
E|-----------|   |-------------------------|
B|-----------|   |-------------------------|
G|-----------|   |-------------------------|
D|-7~~~10~5~-| x2|-7-------10-[x8]--5-[x8]-| x2
A|-5~~~8~~3~-|   |-5-[x16]-8--------3------|
E|-5~~~------|   |-5-----------------------|
pm                 .       .        .

Verse [Rhythme]
E|------------|   
B|------------|   
G|------------|   
D|-7~~~10~12~-| x4
A|-5~~~8~~10~-|   
E|-5~~~-------| 

Chorus [Lead]
E|---------------------------------------------|  E|---------------------|
B|---------------------------------------------|  B|-/15~~~-----18-17----|
G|---------------------------------------------|  G|-------17~~~------17-|x2
D|-7-7--7-7--7-7-7--7-7--7-3-3--3-3-3/5-5--5-5-|x2D|---------------------|
A|-5-5--5-5--5-5-5--5-5--5-1-1--1-1-1/3-3--3-3-|  A|---------------------|
E|-5-5--5-5--5-5-5--5-5--5-1-1--1-1-1/3-3--3-3-|  E|---------------------|

Chorus [Rhythme]
E|---------------------------------------------|
B|---------------------------------------------|
G|---------------------------------------------| 
D|-7-7--7-7--7-7-7--7-7--7-3-3--3-3-3/5-5--5-5-| x4
A|-5-5--5-5--5-5-5--5-5--5-1-1--1-1-1/3-3--3-3-| 
E|-5-5--5-5--5-5-5--5-5--5-1-1--1-1-1/3-3--3-3-|

Bridge [Lead]
E|-----------|   
B|-----------|   
G|-----------|   
D|-7~~~10~5~-| 
A|-5~~~8~~3~-|   
E|-5~~~------|

Bridge [Rhythme]
E|------------|   
B|------------|   
G|------------|   
D|-7~~~10~12~-| 
A|-5~~~8~~10~-|   
E|-5~~~-------| 

Verse [Lead]
E|-----------| 
B|-----------| 
G|-----------| 
D|-7~~~10~5~-| 
A|-5~~~8~~3~-| 
E|-5~~~------|

          *vPlay this part twice!v*
E|-------------------------------------------------------------------------|
B|-------------------------------------------------------------------------|
G|-------------------------------------------------------------------------|
D|-7-7-7-7-7-7-7-7-7-7-7-7-7-7-7-7-10-10-10-10-10-10-10-10-5-5-5-5-5-5-5-5-|
A|-5-5-5-5-5-5-5-5-5-5-5-5-5-5-5-5--8--8--8--8--8--8--8--8-3-3-3-3-3-3-3-3-|
E|-5-5-5-5-5-5-5-5-5-5-5-5-5-5-5-5-----------------------------------------|
pm . .   . .   .   . .   . .   .    .  .     .  .     .    . .   . .   .

Verse [Rhythme]
E|------------|   
B|------------|   
G|------------|   
D|-7~~~10~12~-| x4
A|-5~~~8~~10~-|   
E|-5~~~-------| 

Chorus [Lead] [remember - down, up, up, up, up]
E|---------------------------------------------|  E|---------------------|
B|---------------------------------------------|  B|-/15~~~-----18-17----|
G|---------------------------------------------|  G|-------17~~~------17-|
D|-7-7--7-7--7-7-7--7-7--7-3-3--3-3-3/5-5--5-5-|x2D|---------------------|x2
A|-5-5--5-5--5-5-5--5-5--5-1-1--1-1-1/3-3--3-3-|  A|---------------------|
E|-5-5--5-5--5-5-5--5-5--5-1-1--1-1-1/3-3--3-3-|  E|---------------------|

Chorus [Rhythme]
E|---------------------------------------------|
B|---------------------------------------------|
G|---------------------------------------------| 
D|-7-7--7-7--7-7-7--7-7--7-3-3--3-3-3/5-5--5-5-| x4
A|-5-5--5-5--5-5-5--5-5--5-1-1--1-1-1/3-3--3-3-| 
E|-5-5--5-5--5-5-5--5-5--5-1-1--1-1-1/3-3--3-3-|

Bridge [Rhythme]
E|------------|   
B|------------|   
G|------------|   
D|-7~~~10~12~-| 
A|-5~~~8~~10~-|   
E|-5~~~-------| 

Solo [Rhythme]
E|---------------------------------------------|
B|---------------------------------------------|
G|---------------------------------------------| 
D|-7-7--7-7--7-7-7--7-7--7-3-3--3-3-3/5-5--5-5-| x4
A|-5-5--5-5--5-5-5--5-5--5-1-1--1-1-1/3-3--3-3-| 
E|-5-5--5-5--5-5-5--5-5--5-1-1--1-1-1/3-3--3-3-|

Solo [Lead]
E|-----------------------------------------------------|
B|-8-------------------6p5---5-------------------------|
G|-7(9)-(9)7-5-7---5h7-----7---7-5-7p5p4-4h5p4---4-----|
D|---------------0-----------------------------7---7p5-|
A|-----------------------------------------------------|
E|-----------------------------------------------------|

E|------------------------------------------------------|
B|-10p8----8--------------------------------------------|
G|------10---10p9-9-9h10p9h10p9h10p9-5-5h7~~-7-7--7-7-7-|
D|-------------------------------------------7-7--7-7-7-|
A|-------------------------------------------5-5--5-5-5-|
E|------------------------------------------------------|

E|---------------|
B|---------------|
G|---------------|
D|-3~7~5~7~7/10~-|
A|---------------|
E|---------------|

E|-----------------------------------------------|
B|-15p13----15p13----15p13----15p13----15p13-----|
G|-------14-------14-------14-------14-------14~-|
D|-----------------------------------------------|
A|-----------------------------------------------|
E|-----------------------------------------------|

E|-----------------------------------------------|
B|-15p13----15p13----15p13----15p13----15p13-----|
G|-------14-------14-------14-------14-------14~-|
D|-----------------------------------------------|
A|-----------------------------------------------|
E|-----------------------------------------------|

E|-----------------------------------------------|
B|-13p10----13p10----13p10----13p10----13p10-----|
G|-------10-------10-------10-------10-------10~-|
D|-----------------------------------------------|
A|-----------------------------------------------|
E|-----------------------------------------------|

E|-------------------------------------|
B|-12p9---12p9---12p9---12p9---12p9----|
G|------9------9------9------9------9~-|
D|-------------------------------------|
A|-------------------------------------|
E|-------------------------------------|

E|-----------------------------------------------|
B|-15p13----15p13----15p13----15p13----15p13-----|
G|-------14-------14-------14-------14-------14~-|
D|-----------------------------------------------|
A|-----------------------------------------------|
E|-----------------------------------------------|

E|-----------------------------------------------|
B|-15p13----15p13----15p13----15p13----15p13-----|
G|-------14-------14-------14-------14-------14~-|
D|-----------------------------------------------|
A|-----------------------------------------------|
E|-----------------------------------------------|

E|-----------------------------------------------|
B|-13p10----13p10----13p10----13p10----13p10-----|
G|-------10-------10-------10-------10-------10~-|
D|-----------------------------------------------|
A|-----------------------------------------------|
E|-----------------------------------------------|

E|-----------------------|
B|-/15~~~-----18-17------|
G|-------17~~~------17~~-|
D|-----------------------|
A|-----------------------|
E|-----------------------|


Chorus [Lead]
E|---------------------------------------------|  
B|---------------------------------------------|  
G|---------------------------------------------|  
D|-7-7--7-7--7-7-7--7-7--7-3-3--3-3-3/5-5--5-5-|x2
A|-5-5--5-5--5-5-5--5-5--5-1-1--1-1-1/3-3--3-3-|  
E|-5-5--5-5--5-5-5--5-5--5-1-1--1-1-1/3-3--3-3-| 

E|-----------------------------------------------|
B|-15p13----15p13----15p13----15p13----15p13-----|
G|-------14-------14-------14-------14-------14~-|
D|-----------------------------------------------|
A|-----------------------------------------------|
E|-----------------------------------------------|

E|-----------------------------------------------|
B|-15p13----15p13----15p13----15p13----15p13-----|
G|-------14-------14-------14-------14-------14~-|
D|-----------------------------------------------|
A|-----------------------------------------------|
E|-----------------------------------------------|

E|-----------------------------------------------|
B|-13p10----13p10----13p10----13p10----13p10-----|
G|-------10-------10-------10-------10-------10~-|
D|-----------------------------------------------|
A|-----------------------------------------------|
E|-----------------------------------------------|

E|-------------------------------------|
B|-12p9---12p9---12p9---12p9---12p9----|
G|------9------9------9------9------9~-|
D|-------------------------------------|
A|-------------------------------------|
E|-------------------------------------|

E|-----------------------------------------------|
B|-15p13----15p13----15p13----15p13----15p13-----|
G|-------14-------14-------14-------14-------14~-|
D|-----------------------------------------------|
A|-----------------------------------------------|
E|-----------------------------------------------|

E|-----------------------------------------------|
B|-15p13----15p13----15p13----15p13----15p13-----|
G|-------14-------14-------14-------14-------14~-|
D|-----------------------------------------------|
A|-----------------------------------------------|
E|-----------------------------------------------|

E|-----------------------------------------------|
B|-13p10----13p10----13p10----13p10----13p10-----|
G|-------10-------10-------10-------10-------10~-|
D|-----------------------------------------------|
A|-----------------------------------------------|
E|-----------------------------------------------|

E|-------------------------------------|
B|-12p9---12p9---12p9---12p9---12p9----|
G|------9------9------9------9------9~-|
D|-------------------------------------|
A|-------------------------------------|
E|-------------------------------------|

Chorus [Rhythme]
E|---------------------------------------------|
B|---------------------------------------------|
G|---------------------------------------------| 
D|-7-7--7-7--7-7-7--7-7--7-3-3--3-3-3/5-5--5-5-| x4
A|-5-5--5-5--5-5-5--5-5--5-1-1--1-1-1/3-3--3-3-| 
E|-5-5--5-5--5-5-5--5-5--5-1-1--1-1-1/3-3--3-3-|

The ending is pretty simple so you guy's can work that one out =]

Now Believe Me This One Is 100% Correct...Trust Me ;]
Tap to rate this tab
# A B C D E F G H I J K L M N O P Q R S T U V W X Y Z