Song name
# A B C D E F G H I J K L M N O P Q R S T U V W X Y Z

Misc Unsigned Bands - Swine Plague - Death Machine tab

Death Machine - guitar tab
Swine Plague



drop D tuning - D A D G B e


 - guitars 1 & 2

 intro

|--------------------------------------------------------------------|
|--------------------------------------------------------------------|
|--------------------------------------------------------------------|
|-0--x-x-0-x-x-0--x-x-x-0-0-0-3--x-x-x-3-3-3-5--x-x-x-0-x-x----------|
|-0--x-x-0-x-x-0--x-x-x-0-0-0-3--x-x-x-3-3-3-5--x-x-x-0-x-x----------|
|\0--x-x-0-x-x-0--x-x-x-0-0-0-3--x-x-x-3-3-3-5--x-x-x-0-x-x----------| X2



 verse

|--------------------------------------------------------------------|
|--------------------------------------------------------------------|
|--------------------------------------------------------------------|
|-0--x-x-0-x-x-0--x-x-x-0-0-0-3--x-x-x-3-3-3-5--x-x-x-0-x-x----------|
|-0--x-x-0-x-x-0--x-x-x-0-0-0-3--x-x-x-3-3-3-5--x-x-x-0-x-x----------|
|-0--x-x-0-x-x-0--x-x-x-0-0-0-3--x-x-x-3-3-3-5--x-x-x-0-x-x----------| x4


|--------------------------------------------------------------------|
|--------------------------------------------------------------------|
|--------------------------------------------------------------------|
|---3-2-------------3-2-------------3-2---3-2---3-2------------------|
|---3-2-0-0-0-0-0-0-3-2-0-0-0-0-0-0-3-2-0-3-2-0-3-2-0-0-0-x-0-0-0-0--|
|---3-2-0-0-0-0-0-0-3-2-0-0-0-0-0-0-3-2-0-3-2-0-3-2-0-0-0-3-0-0-0-0--| 


|--------------------------------------------------------------------|
|--------------------------------------------------------------------|
|--------------------------------------------------------------------|
|---3-2-------------3-2-------------3-2---3-2---3-2------------------|
|---3-2-0-0-0-0-0-0-3-2-0-0-0-0-0-0-3-2-0-3-2-0-3-2-0-x-x-x-x-x-x----|
|---3-2-0-0-0-0-0-0-3-2-0-0-0-0-0-0-3-2-0-3-2-0-3-2-0-x-x-x-x-x-x----|


 chorus

|----------------------------------|
|----------------------------------|
|---2---2-2-2-2-2-2-2-x-x--5----7--|
|---2---2-2-2-2-2-2-2-x-x--5----7--|
|---0---0-0-0-0-0-0-0-0-0--3----5--|
|-------------------------------0--| x4



 solo

 - guitar 1

|-4/(5)-5-5-5-4/(5)-5-5-5-4/(5)--------------------------------------|
|-4/(5)-5-5-5-4/(5)-5-5-5-4/(5)~-------------------------------------|
|-----------------------------------7-5-7-5-7b(9)~-7-5---------------|
|------------------------------------------------------7-5-7~--------|
|--------------------------------------------------------------------|
|--------------------------------------------------------------------|


|17h(20)(17)h(20)(17)x3-------------------------------------------------------|
|-------------------20-20b(22)r(20)-----19b(21)r(19)--------------------------|
|---------------------------------19-17-19b(21)r(19)--------------------------|
|--------------------------------------------------17h(19)p(17)h(19)p(17)-----|
|-----------------------------------------------------------------------19-19\|
|-----------------------------------------------------------------------------|


|-0----h(8)(5)(0)h(8)(5)(0)h(8)(5)0----------------------------------|
|--------------------------------------------------------------------|
|-------------------------------------7b(9)---5-7-5-7b(9)~-----------|
|--------------------------------------------------------------------|
|--------------------------------------------------------------------|
|--------------------------------------------------------------------|


|-20p(17)---17----------------------------------------------------------------------------|
|-------(20)-(20)p(17)20p(17)---17--------------------------------------------------------|
|---------------------------(19)-(19)p(17)19p(17)----17---------------------17------------|
|-----------------------------------------------h(19)-(19)p(17)-19p(17)h(19)-(19)p(17)19\-|  
|-----------------------------------------------------------------------------------------|  
|-----------------------------------------------------------------------------------------|


 - guitar 2

|--------------------------------------------------------------------|
|--------------------------------------------------------------------|
|---2---------------5---------------0---------------2----------------|
|---2---------------5---------------0---------------2----------------|
|---0---------------3---------------x---------------0----------------|
|---0-------------------------------5---------------0----------------| x3


|--------------------------------------------------------------------|
|--------------------------------------------------------------------|
|---2---------------5---------------0----------------2-2-2-2-2-2-2---|
|---2---------------5---------------0----------------2-2-2-2-2-2-2---|
|---0---------------3---------------x----------------0-0-0-0-0-0-0---|
|---0-------------------------------5----------------0-0-0-0-0-0-0---|




Tap to rate this tab
# A B C D E F G H I J K L M N O P Q R S T U V W X Y Z