Song name
# A B C D E F G H I J K L M N O P Q R S T U V W X Y Z

Misc Unsigned Bands - Soultanas - Moments tab

-------------------------------------------------------------------------------
			     MOMENTS - Soultanas
-------------------------------------------------------------------------------
Tabbed by: Szabó Dániel
Email: web.szada@gmail.com

Tuning: Standard (EADGBe)

e|---------------------------------------------------------------------------|
B|----------3h5-3-----------------------------------------3------------------|
G|-2---5-------5----4-----2--4-4/5--4--2-----2--4-4h5--4--------5-4-5-4------|
D|---------------------------------------------------------------------------|
A|---------------------------------------------------------------------------|
E|---------------------------------------------------------------------------|

e|---------------------------------------------------------------------------|
B|-3h5~-----3-----3h5~----3------1h3~----------------------------------------|
G|------------5-------------5--------------5--5h7--5~----4-------------------|
D|---------------------------------------------------------------------------|
A|---------------------------------------------------------------------------|
E|---------------------------------------------------------------------------|

e|---------------------------------------------------------------------------|
B|-------3--5~----6--6h8--5------6--6h8--3-----------------------------------|
G|-4--5-------------------------------------5--------------------------------|
D|---------------------------------------------------------------------------|
A|---------------------------------------------------------------------------|
E|---------------------------------------------------------------------------|

e|-------------------------------3-----3--5~----8--10--8--7------------------|
B|-------3--5--3-----3--5--3--5-----5----------------------------------------|
G|-4--5-----------5----------------------------------------------------------|
D|---------------------------------------------------------------------------|
A|---------------------------------------------------------------------------|
E|---------------------------------------------------------------------------|
                                                        
e|-5-7--8--10--8--7--5-7--8--10--8--7--5-7--8--10--8--7~---------------------|
B|---------------------------------------------------------------------------|
G|---------------------------------------------------------------------------|
D|---------------------------------------------------------------------------|
A|---------------------------------------------------------------------------|
E|---------------------------------------------------------------------------|


| /  slide up
| h  hammer-on
| p  pull-off
| ~  vibrato

===============================================================================
Tap to rate this tab
# A B C D E F G H I J K L M N O P Q R S T U V W X Y Z