Song name
# A B C D E F G H I J K L M N O P Q R S T U V W X Y Z

Misc Unsigned Bands - T6 - Death tab

e--------------------------------------------|
b--------------------------------------------|
g--------------------------------------------|
d--------------------------------------------|
a--9--5-7---9--5-7---9--5-7---9--5-7---------|
d--9--5-7---9--5-7---9--5-7---9--5-7---------|

e--------------------------------------------|
b--------------------------------------------|
g--------------------------------------------|
d--------------------------------------------|
a---9-9-10-9-9-9-10-9-9-9-10-5--7------------|
d---9-9-10-9-9-9-10-9-9-9-10-5--7------------|
Tap to rate this tab
 
# A B C D E F G H I J K L M N O P Q R S T U V W X Y Z