Song name
# A B C D E F G H I J K L M N O P Q R S T U V W X Y Z

Misc Unsigned Bands - Even The Odds - One For The Kids tab

INTRO/VERSES
E----------------------|
B----------------------|
G-----7--5--3----------|
D--3--7--5--3----------|
A--3--5--3--1----------|
E--1-------------------|

Chorus
E----------------------|
B----------------------|
G-----3--7--5----------|
D--3--3--7--5----------|
A--3--1--5--3----------|
E--1-------------------|

Bridge
E----------------------|
B----------------------|
G--7---3---------------|
D--7---3---------------|
A--5---1---------------|
E----------------------|

Last Chorus(moves up a half step)
Chorus
E----------------------|
B----------------------|
G-----4--8--6----------|
D--4--4--8--6----------|
A--4--2--6--4----------|
E--2-------------------|

RECAP
INTRO/Verses
F-D-C-A#

Chorus
F-A#- D- C

Bridge
D-A#

Last Chorus moves up a half step
F#-B-D#-C#

listen to the song online at www.myspace.com/eventheodds for strumming patterns
Tap to rate this tab
 
# A B C D E F G H I J K L M N O P Q R S T U V W X Y Z