Song name
# A B C D E F G H I J K L M N O P Q R S T U V W X Y Z

Misc Unsigned Bands - Black Napalm - Im Saying And Saving tab

E-------------------------------------------------------------------|
B-------------------------------------------------------------------|
G-------------------------------------------------------------------|
D-------------------------------------------------------------------|
A-22-3-0----2-2-2-2-2-2-2-2-5-5-5-5-5-5-5-5-0-0-0-0-0-0-0-0-2-2-0-2-|
E-22-3-0------------------------------------------------------------|

[repeat 22-3-0 3x]           /play soft and get louder and louder\

E------------------------------------------------------------------|
B------------------------------------------------------------------|
G------------------------------------------------------------------|
D------------------------------------------------------------------|
A-----2-2-2-2-2-2-222-5-5-5-5-5-5-555-0-0-0-0-0-0-000-2-2-0-2------|
E-----2-2-2-2-2-2-222-5-5-5-5-5-5-555-0-0-0-0-0-0-000-2-2-0-2------|

[repeat whole riff 3x]

E------------------------------------------------------------------|
B------------------------------------------------------------------|
G------------------------------------------------------------------|
D------------------------------------------------------------------|
A------------------------------------------------------------------|
E-----2-2-2-2-5-5-5-5-7-7-7-7---------2-2-2-2-5-5-5-5-7-7-7-7------|

[repeat 2x]

E----------------------------------------------------------------------------|
B----------------------------------------------------------------------------|
G----------------------------------------------------------------------------|
D----------------------------------------------------------------------------|
A------------------------------------2-2-0-0-------------------2-2-0-0-------|
E-7-7-7-7-5-5-5-5-2-2-0-2-202-202-202-------2-2-0-2-202-202-202-------22-0-2-|

E------------------------------------------------------------------|
B------------------------------------------------------------------|
G------------------------------------------------------------------|
D------------------------------------------------------------------|
A-----2-2-2-2-2-2-2-2-5-5-5-5-5-5-5-5-0-0-0-0-0-0-0-0-2-2-0-2~~~---|
E-----2-2-2-2-2-2-2-2-5-5-5-5-5-5-5-5-0-0-0-0-0-0-0-0-2-2-0-2~~~---|

E--------------------------------------------------------------------|
B--------------------------------------------------------------------|
G--------------------------------------------------------------------|
D--------------------------------------------------------------------|
A--------------------------------------------------------------------|
E-----2---2---3---0-----2--2--3--0----2-2-3-0----2230-2230-2230-2230-|

E-------------------------------------------------------------------|
B-------------------------------------------------------------------|
G-------------------------------------------------------------------|
D-------------------------------------------------------------------|
A-----2-2-2-2-5-5-5-5-0-0-0-0-2-2-0-2-------------------------------|
E-----2-2-2-2-5-5-5-5-0-0-0-0-2-2-0-2///----------------------------|

E------------------------------------------------------------------|
B------------------------------------------------------------------|
G------------------------------------------------------------------|
D------------------------------------------------------------------|
A------------------------------------------------------------------|
E-----2-2-2-2-5-5-5-5-7-7-7-7---------2-2-2-2-5-5-5-5-7-7-7-7------|

[repeat 2x]

E---------------------------------------------------------------------------|
B---------------------------------------------------------------------------|
G---------------------------------------------------------------------------|
D---------------------------------------------------------------------------|
A---------------------------------------------------------------------------|
E-7-7-7-7-5-5-5-5--2-2-0-2------------7--7--7--7--5--5--5--5--2-2-0-2-------|

E---------------------------------------------------------------------------|
B---------------------------------------------------------------------------|
G---------------------------------------------------------------------------|
D---------------------------------------------------------------------------|
A---------------------------------------------------------------------------|
E-2222222-0-2-2222222-0-2-2222222-0-2----2-2-2-2-5-5-5-5-0-0-0-0-2202~------|
                                                                      ******


*-palm mute
/-slide down


Tab by Mike Gerler
gerler_40@yahoo.com
leave comments
Tap to rate this tab
# A B C D E F G H I J K L M N O P Q R S T U V W X Y Z