Song name
# A B C D E F G H I J K L M N O P Q R S T U V W X Y Z

Misc Unsigned Bands - Whats Dead Is Done - Atheist tab

I am Jacob Ruiz.  The guy who created "What's dead is done".  so i can assure you that
tab is 100% correct.  You can email me if you would like to purchase my demo.  It has
much any type of rock-style music on there.  indie, acoustic, alternative, hardcore, and 
interested?  then go ahead and email.  thank you.

jacobbisme@aim.com


(intro)
|-----------------------------------------------0--|
|---------3----------3----------3---------3-----3--|
|-------0----------0----------0---------0-------0--|
|-----4----------4----------4---------4---------4--|
|---5----------3----------0---------5-----------5--|
|--------------------------------------------------|

(verse)
|-----------------------------------------------------|
|---------3-----------3-----------3-----------3-------|
|-------0---0-------0---0-------0---0-------0---0-----|
|-----4-------4---4-------4---4-------4---4-------4---|
|--(5)----------3-----------0-----------3-----------5-|
|-----------------------------------------------------|

(chorus)
|-------------------------------------------------------------------------|
|--------0--------1--------0--------1--------0--------1--------0-------3--|
|------2--------2--------2--------2--------2---------2-------2-------2----|
|----2--------2--------2--------2--------2---------2-------2-------2------|
|--0--------0--------1--------3--------1---------0-------0-------1--------|
|-------------------------------------------------------------------------|

(outro)
|---0---0---0--|
|---3---3---3--|
|---0---0---0--|
|---4---4---4--|
|---5---3---5--|
|--------------|

Order:          (0:00-2:43)

1. intro(x1)    (0:00-0:11)
2. verse(x4)    (0:11-0:40)
3. chorus(x2)   (0:40-1:11)
4. verse(x4)    (1:11-1:40)
5. chorus(x2)   (1:40-2:11)
6. verse(x2)    (2:11-2:35)
7. outro(x1)    (2:35-2:43)
Tap to rate this tab
# A B C D E F G H I J K L M N O P Q R S T U V W X Y Z