Song name
# A B C D E F G H I J K L M N O P Q R S T U V W X Y Z

Misc Unsigned Bands - Traces Of A Dream - Are You Obsessed tab

Intro: X4

Guitar 1:

e -------------------|------------------|----------------|-------------------|
B -------------------|------------------|----------------|-------------------|
G -------------------|------------------|----------------|-------------------|
D ----12---11---12---|----12---11---12--|-----7---6---7--|-----7---6---7-----|
A --9----9----9----9-|--9----9----9---9-|---4---4---4---4|---4---4---4---4---|
D 9------------------|9-----------------|-4--------------|-4-----------------|

Guitar 2:

on the second time of the guitar 1
in line with chord changes

e |-----|-----|
B |-----|-----|
G |-----|-----|
D |-~9~-|-~4~-|
A |-~9~-|-~4~-|
D |-~9~-|-~4~-|

Verse: Guitar 1 X4

e -------------------|------------------|----------------|-----------------|
B -------------------|------------------|----------------|-----------------|
G -------------------|------------------|----------------|-----------------|
D ----12---11---12---|----12---11---12--|-----7---6---7--|-----7---6---7---|
A --9----9----9----9-|--9----9----9---9-|---4---4---4---4|---4---4---4---4-|
D 9------------------|9-----------------|-4--------------|-4---------------|

Verse: Guitar 2 X4

e |-----------------|-----------------|-----------------|-----------------|
B |-----------------|-----------------|-----------------|-----------------|
G |-----------------|-----------------|-----------------|-----------------|
D |-9-9-9-9-9-9-9-9-|-9-9-9-9-9-9-9-9-|-4-4-4-4-4-4-4-4-|-4-4-4-4-4-4-4-4-|
A |-9-9-9-9-9-9-9-9-|-9-9-9-9-9-9-9-9-|-4-4-4-4-4-4-4-4-|-4-4-4-4-4-4-4-4-|
D |-9-9-9-9-9-9-9-9-|-9-9-9-9-9-9-9-9-|-4-4-4-4-4-4-4-4-|-4-4-4-4-4-4-4-4-|

Pre Chorus: Both guitars

e |-------|-------------|-------|-------------|-------|-------------|-----|
B |-------|-------------|-------|-------------|-------|-------------|-----|
G |-------|-------------|-------|-------------|-------|-------------|-----|
D |-2-2-2-|-0-0-0-0-0-0-|-2-2-2-|-0-0-0-0-0-0-|-2-2-2-|-0-0-0-0-0-0-|-~4~-|
A |-2-2-2-|-0-0-0-0-0-0-|-2-2-2-|-0-0-0-0-0-0-|-2-2-2-|-0-0-0-0-0-0-|-~4~-|
D |-2-2-2-|-0-0-0-0-0-0-|-2-2-2-|-0-0-0-0-0-0-|-2-2-2-|-0-0-0-0-0-0-|-~4~-|

Chorus: Both guitars

e |-------|-------------|-------|-------------|
B |-------|-------------|-------|-------------|
G |-------|-------------|-------|-------------|X4
D |-4-4-4-|-0-0-0-0-0-0-|-5-5-5-|-2-2-2-2-2-2-|
A |-4-4-4-|-0-0-0-0-0-0-|-5-5-5-|-2-2-2-2-2-2-|
D |-4-4-4-|-0-0-0-0-0-0-|-5-5-5-|-2-2-2-2-2-2-|

Post Chorus: X2

Guitar 1:

e -------------------|------------------|----------------|-------------------|
B -------------------|------------------|----------------|-------------------|
G -------------------|------------------|----------------|-------------------|
D ----12---11---12---|----12---11---12--|-----7---6---7--|-----7---6---7-----|
A --9----9----9----9-|--9----9----9---9-|---4---4---4---4|---4---4---4---4---|
D 9------------------|9-----------------|-4--------------|-4-----------------|

Guitar 2:

in line with chord changes!

e |-----|-----|
B |-----|-----|
G |-----|-----|
D |-~9~-|-~4~-|
A |-~9~-|-~4~-|
D |-~9~-|-~4~-|

Verse: Guitar 1 X4

e -------------------|------------------|----------------|-----------------|
B -------------------|------------------|----------------|-----------------|
G -------------------|------------------|----------------|-----------------|
D ----12---11---12---|----12---11---12--|-----7---6---7--|-----7---6---7---|
A --9----9----9----9-|--9----9----9---9-|---4---4---4---4|---4---4---4---4-|
D 9------------------|9-----------------|-4--------------|-4---------------|

Verse: Guitar 2 X4

e |-----------------|-----------------|-----------------|-----------------|
B |-----------------|-----------------|-----------------|-----------------|
G |-----------------|-----------------|-----------------|-----------------|
D |-9-9-9-9-9-9-9-9-|-9-9-9-9-9-9-9-9-|-4-4-4-4-4-4-4-4-|-4-4-4-4-4-4-4-4-|
A |-9-9-9-9-9-9-9-9-|-9-9-9-9-9-9-9-9-|-4-4-4-4-4-4-4-4-|-4-4-4-4-4-4-4-4-|
D |-9-9-9-9-9-9-9-9-|-9-9-9-9-9-9-9-9-|-4-4-4-4-4-4-4-4-|-4-4-4-4-4-4-4-4-|

Pre Chorus: Both guitars

e |-------|-------------|-------|-------------|-------|-------------|-----|
B |-------|-------------|-------|-------------|-------|-------------|-----|
G |-------|-------------|-------|-------------|-------|-------------|-----|
D |-2-2-2-|-0-0-0-0-0-0-|-2-2-2-|-0-0-0-0-0-0-|-2-2-2-|-0-0-0-0-0-0-|-~4~-|
A |-2-2-2-|-0-0-0-0-0-0-|-2-2-2-|-0-0-0-0-0-0-|-2-2-2-|-0-0-0-0-0-0-|-~4~-|
D |-2-2-2-|-0-0-0-0-0-0-|-2-2-2-|-0-0-0-0-0-0-|-2-2-2-|-0-0-0-0-0-0-|-~4~-|

Chorus: Both guitars

e |-------|-------------|-------|-------------|
B |-------|-------------|-------|-------------|
G |-------|-------------|-------|-------------|X4
D |-4-4-4-|-0-0-0-0-0-0-|-5-5-5-|-2-2-2-2-2-2-|
A |-4-4-4-|-0-0-0-0-0-0-|-5-5-5-|-2-2-2-2-2-2-|
D |-4-4-4-|-0-0-0-0-0-0-|-5-5-5-|-2-2-2-2-2-2-|

Guitar solo:

Guitar 2:

e |-------|-------------|-------|-------------|
B |-------|-------------|-------|-------------|
G |-------|-------------|-------|-------------|X12
D |-4-4-4-|-0-0-0-0-0-0-|-5-5-5-|-2-2-2-2-2-2-|
A |-4-4-4-|-0-0-0-0-0-0-|-5-5-5-|-2-2-2-2-2-2-|
D |-4-4-4-|-0-0-0-0-0-0-|-5-5-5-|-2-2-2-2-2-2-|

Guitar 1:

Scales n Shit!

so if you do scales to it mixed with finger tappin pull offs, and hammer ons like super 
with slides in the correct key youve pretty much got the solo.

i cant be arsed to do the solo so......


Verse 3/ Outro:

Guitar 1 X5

e -------------------|------------------|----------------|-------------------|
B -------------------|------------------|----------------|-------------------|
G -------------------|------------------|----------------|-------------------|
D ----12---11---12---|----12---11---12--|-----7---6---7--|-----7---6---7-----|
A --9----9----9----9-|--9----9----9---9-|---4---4---4---4|---4---4---4---4---|
D 9------------------|9-----------------|-4--------------|-4-----------------|

Guitar 2 X4

e |-----------------|-----------------|-----------------|-----------------|
B |-----------------|-----------------|-----------------|-----------------|
G |-----------------|-----------------|-----------------|-----------------|
D |-9-9-9-9-9-9-9-9-|-9-9-9-9-9-9-9-9-|-4-4-4-4-4-4-4-4-|-4-4-4-4-4-4-4-4-|
A |-9-9-9-9-9-9-9-9-|-9-9-9-9-9-9-9-9-|-4-4-4-4-4-4-4-4-|-4-4-4-4-4-4-4-4-|
D |-9-9-9-9-9-9-9-9-|-9-9-9-9-9-9-9-9-|-4-4-4-4-4-4-4-4-|-4-4-4-4-4-4-4-4-|

e |-----|-----|
B |-----|-----|
G |-----|-----|
D |-~9~-|-~4~-|
A |-~9~-|-~4~-|
D |-~9~-|-~4~-|
Tap to rate this tab
# A B C D E F G H I J K L M N O P Q R S T U V W X Y Z