Song name
# A B C D E F G H I J K L M N O P Q R S T U V W X Y Z

Misc Unsigned Bands - The Whorewoods - Callenetics tab

artist: the whorewoods
song: callenetics
tabbed by: bkskaret@yahoo.com


Intro 2x(Clean):

   D        G        D        G        C        G        D
e/-2-22-222-3-33-333-2-22-222-3-33-333-3-33-333-3-33-333-2-222222/
B/-3-33-333-0-00-000-3-33-333-0-00-000-0-00-000-0-00-000-3-333333/
G/-2-22-222-0-00-000-2-22-222-0-00-000-0-00-000-0-00-000-2-222222/
D/----------0-00-000----------0-00-000-2-22-222-0-00-000---------/
A/----------2-22-222----------2-22-222-3-33-333-2-22-222---------/
E/----------3-33-333----------3-33-333----------3-33-333---------/


Verse 4x(Ska Rythm):                    Last Time:

    D       A       G       A               D       A       G       A
e/-x5x5x5x5x5x5x5x5x3x3x3x3x5x5x5x5/    e/-x5x5x5x5x5x5x5x5x3x3x3x3x5/
B/-x7x7x7x7x5x5x5x5x3x3x3x3x5x5x5x5/    B/-x7x7x7x7x5x5x5x5x3x3x3x3x5/
G/-x7x7x7x7x6x6x6x6x4x4x4x4x6x6x6x6/    G/-x7x7x7x7x6x6x6x6x4x4x4x4x6/
D/-x7x7x7x7x7x7x7x7x5x5x5x5x7x7x7x7/    D/-x7x7x7x7x7x7x7x7x5x5x5x5x7/
A/-x5x5x5x5x7x7x7x7x5x5x5x5x7x7x7x7/    A/-x5x5x5x5x7x7x7x7x5x5x5x5x7/
E/----------5x5x5x5x3x3x3x3x5x5x5x5/    E/----------5x5x5x5x3x3x3x3x5/


Chorus 2x(Distortion):


   D        G        D        G        C        G        D
e/---------------------------------------------------------------/
B/---------------------------------------------------------------/
G/-7-77-777----------7-77-777----------5-55-555----------7-777777/
D/-7-77-777-5-55-555-7-77-777-5-55-555-5-55-555-5-55-555-5-555555/
A/-5-55-555-5-55-555-5-55-555-5-55-555-3-33-333-5-55-555-5-555555/
E/----------3-33-333----------3-33-333----------3-33-333---------/


Solo:

e/------------------------------------------------------------------/
B/------------------------------------------------------------------/
G/------------------------------------------------------------------/
D/-----777------------777-------------555------------7777*/
A/-5-55-------555-5-55--------555-3-33-------555-5-55---------------/
E/--------3-33------------3-33-----------3-33-----------------------/

Song Order:

Intro
Verse
Chorus
Verse
Chorus
Solo
Intro/End x2
Tap to rate this tab
# A B C D E F G H I J K L M N O P Q R S T U V W X Y Z