Song name
# A B C D E F G H I J K L M N O P Q R S T U V W X Y Z

Misc Unsigned Bands - Part Of The Solution - Part 1 tab

This is our first song we dont really have a name for it yet, but ill change it once we think of one.


e-----------------------------------------------------------------------|
B-----------------------------------------------------------------------|
G-----------------------------------------------------------------------|
D-0-0-7-0-8-0-7---------------------------------------------------------|
A-------------------0-0-7-0-8-0-7-0-------------------------------------|
E---------------------------------------0-0-7-0-0-7-0-8-0-0-7-0-0-7-0-5-|

e-----------------------------------------------------------------------|
B-----------------------------------------------------------------------|
G-----------------------------------------------------------------------|
D-0-0-7-0-8-0-7---------------------------------------------------------|
A-------------------0-0-7-0-8-0-7-0-------------------------------------|
E---------------------------------------0-0-7-0-0-7-0-8-0-0-7-0-0-7-0-5-|

e----------------------------------------------------------------------|
B----------------------------------------------------------------------|
G----------------------------------------------------------------------|
D---3-3-3--0-0-0-0--77-55-99-55--3-3-3--0-0-0-0--77-55-33-22-----------|
A---3-3-3--0-0-0-0--77-55-99-55--3-3-3--0-0-0-0--77-55-33-22-----------|
E---3-3-3--0-0-0-0--77-55-99-55--3-3-3--0-0-0-0--77-55-33-22-----------|

e----------------------------------------------------------------------|
B----------------------------------------------------------------------|
G----------------------------------------------------------------------|
D---3-3-3--0-0-0-0--77-55-99-55--3-3-3--0-0-0-0--77-55-33-22-----------|
A---3-3-3--0-0-0-0--77-55-99-55--3-3-3--0-0-0-0--77-55-33-22-----------|
E---3-3-3--0-0-0-0--77-55-99-55--3-3-3--0-0-0-0--77-55-33-22-----------|

e----------------------------------------------------------------------|
B----------------------------------------------------------------------|
G----------------------------------------------------------------------|
D----------------------------------------------------------------------|
A---5-5-5--7-7-7-7--5-7-5-7-5-7-3------5-5-5--7-7-7-7--7-5-7-5-9-------|
E---3-3-3--5-5-5-5---------------------3-3-3--5-5-5-5------------------|

e----------------------------------------------------------------------|
B----------------------------------------------------------------------|
G----------------------------------------------------------------------|
D----------------------------------------------------------------------|
A---5-5-5--7-7-7-7--5-7-5-7-5-7-3------5-5-5--7-7-7-7--7-5-7-5-9-------|
E---3-3-3--5-5-5-5---------------------3-3-3--5-5-5-5------------------|

e----------------------------------------------------------------------|
B----------------------------------------------------------------------|
G----------------------------------------------------------------------|
D----------------------------------------------------------------------|
A---5-5--7-7-7-7--9-9-9--5-5-5-----------------------------------------|
E---3-3--5-5-5-5--7-7-7--3-3-3-----------------------------------------|

e-----------------------------------------------------------------------|
B-----------------------------------------------------------------------|
G-----------------------------------------------------------------------|
D-----------------------------------------------------------------------|
A---5-5--7-7-7-7--9-9-9--5-5-5------------------------------------------|
E---3-3--5-5-5-5--7-7-7--3-3-3------------------------------------------|

e----------------------------------------------------------------------|
B----------------------------------------------------------------------|
G----------------------------------------------------------------------|
D----------------------------------------------------------------------|
A---5-5--7-7-7-7--9-9-9--5-5-5-----------------------------------------|
E---3-3--5-5-5-5--7-7-7--3-3-3-----------------------------------------|

e----------------------------------------------------------------------|
B----------------------------------------------------------------------|
G----------------------------------------------------------------------|
D---3-3-3--0-0-0-0--77-55-99-55--3-3-3--0-0-0-0--77-55-33-22-----------|
A---3-3-3--0-0-0-0--77-55-99-55--3-3-3--0-0-0-0--77-55-33-22-----------|
E---3-3-3--0-0-0-0--77-55-99-55--3-3-3--0-0-0-0--77-55-33-22-----------|

e----------------------------------------------------------------------|
B----------------------------------------------------------------------|
G----------------------------------------------------------------------|
D---3-3-3--0-0-0-0--77-55-99-55--3-3-3--0-0-0-0--77-55-33-22-----------|
A---3-3-3--0-0-0-0--77-55-99-55--3-3-3--0-0-0-0--77-55-33-22-----------|
E---3-3-3--0-0-0-0--77-55-99-55--3-3-3--0-0-0-0--77-55-33-22-----------|

e----------------------------------------------------------------------|
B----------------------------------------------------------------------|
G----------------------------------------------------------------------|
D----------------------------------------------------------------------|
A---5-5--7-7-7-7--9-9-9--5-5-5-----------------------------------------|
E---3-3--5-5-5-5--7-7-7--3-3-3-----------------------------------------|

e----------------------------------------------------------------------|
B----------------------------------------------------------------------|
G----------------------------------------------------------------------|
D----------------------------------------------------------------------|
A---5-5--7-7-7-7--9-9-9--5-5-5-----------------------------------------|
E---3-3--5-5-5-5--7-7-7--3-3-3-----------------------------------------|

e----------------------------------------------------------------------|
B----------------------------------------------------------------------|
G----------------------------------------------------------------------|
D----------------------------------------------------------------------|
A---5-5--7-7-7-7--9-9-9--5-5-5-----------------------------------------|
E---3-3--5-5-5-5--7-7-7--3-3-3-----------------------------------------|

e---11-11-10-10-13-13-10-10-9-9-8-8-7-7-6-6-11-11-10-10-13-13-10-10-11-|
B----------------------------------------------------------------------|
G----------------------------------------------------------------------|
D----------------------------------------------------------------------|
A----------------------------------------------------------------------|
E----------------------------------------------------------------------|

e---11-12-12-13-13-14-14-10-10-11-10-12-10-11-12-11-11-12-11-13-11-12---|
B-----------------------------------------------------------------------|
G-----------------------------------------------------------------------|
D-----------------------------------------------------------------------|
A-----------------------------------------------------------------------|
E-----------------------------------------------------------------------|

e---11-12-12-13-12-14-12-13-12-17--------------------------------------|
B----------------------------------------------------------------------|
G----------------------------------------------------------------------|
D----------------------------------------------------------------------|
A----------------------------------------------------------------------|
E----------------------------------------------------------------------|

e----------------------------------------------------------------------|
B----------------------------------------------------------------------|
G----------------------------------------------------------------------|
D----------------------------------------------------------------------|
A---5-5--7-7-7-7--9-9-9--5-5-5-----------------------------------------|
E---3-3--5-5-5-5--7-7-7--3-3-3-----------------------------------------|

e----------------------------------------------------------------------|
B----------------------------------------------------------------------|
G----------------------------------------------------------------------|
D----------------------------------------------------------------------|
A---5-5--7-7-7-7--9-9-9--5-5-5-----------------------------------------|
E---3-3--5-5-5-5--7-7-7--3-3-3-----------------------------------------|

e----------------------------------------------------------------------|
B----------------------------------------------------------------------|
G----------------------------------------------------------------------|
D----------------------------------------------------------------------|
A---5-5--7-7-7-7--9-9-9--5-5-5-----------------------------------------|
E---3-3--5-5-5-5--7-7-7--3-3-3-----------------------------------------|

e----------------------------------------------------------------------|
B----------------------------------------------------------------------|
G----------------------------------------------------------------------|
D---3-3-3--0-0-0-0--77-55-99-55--3-3-3--0-0-0-0--77-55-33-22-0---------|
A---3-3-3--0-0-0-0--77-55-99-55--3-3-3--0-0-0-0--77-55-33-22-0---------|
E---3-3-3--0-0-0-0--77-55-99-55--3-3-3--0-0-0-0--77-55-33-22-0---------|
Tap to rate this tab
# A B C D E F G H I J K L M N O P Q R S T U V W X Y Z