Song name
# A B C D E F G H I J K L M N O P Q R S T U V W X Y Z

Misc Unsigned Bands - Mournings End - Memories Of Emily tab

This is an official tab. Done in standard tuning. Enjoy :)

Intro

e|---------------|---------------|----------------|-------------------------|
B|---------------|---------------|----------------|-------------------------|
G|---------------|---------------|----------------|-------------------------|
D|----9----------|---9-----------|----6-----------|-------------------------|
A|--7---7--99--7-|-6---6--99--6--|--4---4--66--4--|------7---------9--------|
E|---------------|---------------|----------------|--55----5---77----7------|

(x2)

Verse
e|--------------------------------------------------------------------------|
B|--------------------------------------------------------------------------|
G|--------------------------------------------------------------------------|
D|---9-9-9-9---9-9-9-9---6-6-6-6-6-6-6-6-----(x4)---------------------------|
A|---7-7-7-7---6-6-6-6---4-4-4-4-4-4-4-4------------------------------------|
E|--------------------------------------------------------------------------|

Link to Chorus
e|--------------------------------------------------------------------------|
B|--------------------------------------------------------------------------|
G|--------------------------------------------------------------------------|
D|--------------------------------------------------------------------------|
A|--7-7---9-9---------------------------------------------------------------|
E|--5-5---7-7---------------------------------------------------------------|

Chorus (note: These are just the chords, not the amount of times.)
e|--------------------------------------------------------------------------|
B|--------------------------------------------------------------------------|
G|--------------------------------------------------------------------------|
D|--9----9----11---7----9----This is all played twice over------------------|
A|--7----9----11---7----9---------------------------------------------------|
E|--0----7----9----5----7---------------------------------------------------|

Interlude
e|--------------------------------------------------------------------------|
B|--------------------------------------------------------------------------|
G|--------------------------------------------------------------------------|
D|-----9-----------9-------------6----------6-------------------------------|
A|---0---9--7----0---9--6------0---6--4----0---6--4-------------------------|
E|--------------------------------------------------------------------------|

e|---------------------------------------------------------------------------|
B|---------------------------------------------------------------------------|
G|---------------------------------------------------------------------------|
D|----9------------9-----------6---------44--66---9--------------------------|
A|---0---9--7----0---9--6----0---6--6----------------7--9--6-----------------|
E|---------------------------------------------------------------------------|

Outro
e|---------------|---------------|----------------|--------------------------|
B|---------------|---------------|----------------|--------------------------|
G|---------------|---------------|----------------|--------------------------|
D|----9----------|---9-----------|----6-----------|-------------9------------|
A|--7---7--99--7-|-6---6--99--6--|--4---4--66--4--|---7-7--9-9--7------------|
E|---------------|---------------|----------------|---5-5--7-7--0------------|
Tap to rate this tab
 
# A B C D E F G H I J K L M N O P Q R S T U V W X Y Z