Song name
# A B C D E F G H I J K L M N O P Q R S T U V W X Y Z

Misc Unsigned Bands - Heated Vengence - Too Far Away tab

E|------------------------------------------|
B|------------------------------------------|
G|------------2-----------0-------0-------0-|
D|----------------------2-0-4-5-------------|
A|----------------------2-0-----------------|
E|---------------3-3------------------------|

E|--------------------------------------------|
B|--------------------------------------------|
G|---------555--------------------------------|
D|-----------------5555-----------------------|
A|------------------555-----------------------|
E|----5-2-------------------------------------|


This is just too far away
Tap to rate this tab
# A B C D E F G H I J K L M N O P Q R S T U V W X Y Z