Song name
# A B C D E F G H I J K L M N O P Q R S T U V W X Y Z

Misc Unsigned Bands - Sin - Amorphosis tab

standard tuning

eto na muli ang pagpost ko ng tab tapos ng mahabang panahon. may ngrequest
kasi sa youtube. o eto na oo nga pla ung mga open E na notes palm mute un ha.

riff a
e|---------------------------------|
b|---------------------------------|
g|---------------------------------|
d|-------------------------8-7-----|
a|---------5---7---8---7-------8-7-|
e|-0-0-0-0---0---0---0---0---------|

riff b
e|-------------------------------|
b|-------------------------------|
g|-------------------------------|
d|-------------------------------|
a|-----2---3---2---0---2---3---5-|
e|-0-0---0---0---0---0---0---0---|

riff c
e|---------------------------------|
b|---------------------------------|
g|---------------------------------|
d|-----------------------------5-5-|
a|---------5-5-----7-7-----888-----|
e|-0-0-0-0-----0-0-----0-0---------|

do riff a

then do riff c

do riff b

riff c,riff a,riff c, riff b again

tapos verse 2x

intro lang ang ggwin ko...
Tap to rate this tab
 
# A B C D E F G H I J K L M N O P Q R S T U V W X Y Z