Song name
# A B C D E F G H I J K L M N O P Q R S T U V W X Y Z

Misc Unsigned Bands - Depot-bomb - Seventimesover tab

Intro

E|----5-p-3-------------------------|
B|----------5-s-7~----7-p-5---------|
G|--------------------------7-s-9---|
D|----------------------------------|
A|----------------------------------|
E|----------------------------------|

                                            }play twice
E|----5-p-3-------------------------|
B|----------5-s-7~----5h7p5---------|
G|--------------------------7h9p7---|
D|----------------------------------|
A|----------------------------------|
E|----------------------------------|



Verse

E|---------------------------|
B|---------------------------|
G|---------------------------|    }x2       --
D|---7-----------------------|                 \
A|---7--7--5--5--5--5--5--5--|                 |
E|---5--5--3--3--3--3--3--3--|                 |
                                               \
                                                --  X2
E|---------------------------|                 /
B|---------------------------|                 |
G|---------------------------|    }x2          |
D|---2-----------------------|                 /
A|---2--2--2--2--2--2--2--2--|              --
E|---0--0--0--0--0--0--0--0--|
    PM......................


Chorus

E|---------------------------|
B|---------------------------|
G|---------------------------|        X2     --
D|---------------------------|                  \
A|---7-7-7--9--9--5-5-5------|                  |
E|---5-5-5--7--7--3-3-3------|                  |
                                                 \
                                                  -- X2
E|---------------------------|                   /
B|---------------------------|                  |
G|---7--7--7--7--7--7--7--7--|    }x2           |
D|---7--7--7--7--7--7--7--7--|                  /
A|---5--5--5--5--5--5--5--5--|               --
E|---------------------------|


Intro
Verse
Chorus
Intro
Verse
Chorus
Chorus







Tap to rate this tab
# A B C D E F G H I J K L M N O P Q R S T U V W X Y Z