Song name
# A B C D E F G H I J K L M N O P Q R S T U V W X Y Z

Misc Unsigned Bands - Kurbhead - Emanon tab

play this really fast


do this 5 times   (CHORUS)
--------------------------------------------------------------|
--------------------------------------------------------------|
--------------------------------------------------------------|
----5-5-5-5-5---------8--8--8--8----7-7-7-7-7----5-5-5-5------|
----3-3-3-3-3--------10-10-10-10----9-9-9-9-9----7-7-7-7------|


riff 1 do it twice

e-------------------------------------------------|
b-------------------------4---3---2---3---4-------|
g--4----3----2---3---4----4---3---2---3---4-------|
d--4----3----2---3---4----4---3---2---3---4-------|
a--4----3----2---3---4----------------------------|
e-------------------------------------------------|
 bar this riff

(Chourus again)

riff 2

x2
e-----------------------------------------|
b-----------------------------------------|
g-----------------------------------------|
d-----------------------------------------|
a----------5--7----9-9-9-9-9-9------------|
e--0--0----3--5----7-7-7-7-7-7------------|

e-----------------------------------------------------|
b-----------------------------------------------------|
g-----------------------------------------------------|
d-----------------------------------------------------|
a--------5--7---9-9-9-9-9-9---7-7--5--0---------------|
e--0-0---3--5---7-7-7-7-7-7---5-5--3--0---------------|

(chorus again)

riff 3

e----------------------------------------------------------|
b----------------------------------------------------------|
g----------------------------------------------------------|
d----------------------------------------------------------|
a---5-7--5-7--7-9--7-9--3-5--3-5-------5--7--5--9----------|
e--------------------------------------3--5--3--7----------|

(chorus again)

solo

x3
on the 12 12 12s bend it

e----------------------------------------------------------------------|
b----------------------------------------------------------------------|
g----------------------------------------------------------------------|
d----------------------------------------------------------------------|
a----------------------------------------------------------------------|
e--12-14-12-14-12-14-12-14-12-12-12------------------------------------|

e-----------------------------------------|
b-----------------------------------------|
g-----------------------------------------|
d-----------------------------------------|
a--12-14-12-14-12-14-12-14-12-12-12-------|
e-----------------------------------------|

e--------------------------------------------------------|
b--------------------------------------------------------|
g--------------------------------------------------------|
d--12-14-12-14-------------------------------------------|
a---------------12-14-12-14------------------------------|
e----------------------------12-14-12-14-12-12-12--------|
Tap to rate this tab
# A B C D E F G H I J K L M N O P Q R S T U V W X Y Z