Song name
# A B C D E F G H I J K L M N O P Q R S T U V W X Y Z

Misc Unsigned Bands - Philophobia - Pulse tab

Philophobia-Pulse

Intro-Both Guitars

Part A
E-------------------------|
B-------------------------|
G-------------------77-9--|
D--------55-7-------------|
A--------33-5-------55-7--|
E---0-0---------0-0-------|

Part B-Last time only
E------------------------|
B------------------------|
G-----------------79999--|
D--------33-5------------|
A--------33-5-----57777--|
E---0-0--------00--------|

Verse

Guitar 1

E-------------------------|
B-------------------------|
G-------------------77-9--|
D--------55-7-------------|
A--------33-5-------55-7--|
E---0-0---------0-0-------|

Guitar 2-One chord per measure-with vibrato
Last chord rings

E-------------------------|
B-------------------------|
G---------------------9---|
D---2-----5-----7---------|
A---2-----3-----5-----7---|
E---0---------------------|

Chorus-Both guitars

G-----------------------|
D----55/9\7----777/9----|
A----33/7\5----555/7----|
E-----------------------|

Song Structure
Intro A-5X
Intro B-1X
Verse 4X
Chorus 4X
Verse 4X
Chorus 8X
Intro A 4X
Tap to rate this tab
 
# A B C D E F G H I J K L M N O P Q R S T U V W X Y Z