Song name
# A B C D E F G H I J K L M N O P Q R S T U V W X Y Z

Misc Unsigned Bands - Men With A Doomsday - Fliers tab

This is my band so its right
-Jake burtonzombie02@yahoo.com

e-19-19-18-18-17-17-16-16--------|
b---0--0--0--0--0--0--0--0-------|
g--------------------------------|
d--------------------------------|      x2
a--------------------------------|
e--------------------------------|

e---5---5-----3----------------------------|
b---5---5-----3----------------------------|
g---6---6-----4----------------------------|
d---7---7-----5------------------0--0------|
a---7---7-----5------------------0--0------|
e---5---5-----3---------8/1------0--0------|
Tap to rate this tab
 
# A B C D E F G H I J K L M N O P Q R S T U V W X Y Z