Guitaretab - guitar tabs
Song name
# A B C D E F G H I J K L M N O P Q R S T U V W X Y Z

Misc Unsigned Bands - V5 - Homebound tab

V.5-Homebound

By: Dylan Dalrymple

This song is kinda a prototype so itís not that good. Anyways, I wrote it.
		INTRO		x1
----------------------------------------------------------------------------|
----------------------------------------------------------------------------|
----------------------------------------------------------------------------|
10----9----7----5----10----9----7---------7----10---------------------------|
8-----7----5----3----8-----7----5----7----5----8-----7----10----9----7----5-|
-------------------------------------5---------------5----8-----7----5----3-|

		VERSE		x4
0-0-0-0-0-0-0-0-2----2-2-0----0-0--|
0-0-0-0-0-0-0-0-3----3-3-1----1-1--|
0-0-0-0-0-0-0-0-2----2-2-0----0-0--|
2-2-2-2-2-2-2-2-0----0-0-2----2-2--|
2-2-2-2-2-2-2-2----------3----3-3--|
0-0-0-0-0-0-0-0--------------------|
(2nd, 3rd, and 4th time)
I want to go home  so---badly so---badly

		REFRAIN		x4
0-0-0-0-0-0-0-0-3-3-3-3-3-3-3-3-0-0-0-0-0-0-0-0-0-0-0-0-0-0-0-0-|
0-0-0-0-0-0-0-0-0-0-0-0-0-0-0-0-1-1-1-1-1-1-1-1-0-0-0-0-0-0-0-0-|
0-0-0-0-0-0-0-0-0-0-0-0-0-0-0-0-0-0-0-0-0-0-0-0-2-2-2-2-2-2-2-2-|
2-2-2-2-2-2-2-2-0-0-0-0-0-0-0-0-2-2-2-2-2-2-2-2-0-0-0-0-0-0-0-0-|
2-2-2-2-2-2-2-2-2-2-2-2-2-2-2-2-3-3-3-3-3-3-3-3-2-2-2-2-2-2-2-2-|
0-0-0-0-0-0-0-0-3-3-3-3-3-3-3-3-----------------0-0-0-0-0-0-0-0-|
(1st time)
Please-------take me home--------I need it----------today-------------
(2nd time)
Come on------wonít you come over and take me home---itíll only take a little while.
(3rd time)
 NOTHING
(4th time)
 NOTHING

		VERSE		x3
(1st, 2nd, and 3rd time)
 Iím sick of what Iím doing so---much so---much
[ Tab from: http://www.guitaretab.com/m/misc-unsigned-bands/90881.html ]
		SOLO		x1
---------------------------------------------------------5----------5--12-9-|
--------7-----------7----------------------------5/7-5/7----5/7-5/7---------|
9b-(10)-----9b-(10)---9-8--7-5---5/7----------------------------------------|
-------------------------------------7/5---5--------------------------------|
-----------------------------------------6----------------------------------|
----------------------------------------------------------------------------|

-----------------------12-------------12----|
-12-9/\/\--------12/14------------12/14-----|
-----------12/14------------12/14-----------|
--------------------------------------------|
--------------------------------------------|
--------------------------------------------|

		VERSE		x3
(1st, 2nd, and 3rd time)
I just canít wait oh---no oh---no

		REFRAIN		x4
(1st time)
Please------------take me home---------I need it----------today------------
(2nd time)
Come on-----------wonít you come over--and take me home---itíll only take a little while.
(3rd time)
 NOTHING
(4th time)
 NOTHING

		VERSE		x3
(1st, 2nd, and 3rd time)
 I want to go home  so---badly so---badly

		OUTRO		x2
2-2-2-2-2-2-2-2-0-0-0-0-0-0-0-0-0-0-0-0-0-0-0-0-0-0-0-0-0-0-0-0--|
3-3-3-3-3-3-3-3-1-1-1-1-1-1-1-1-0-0-0-0-0-0-0-0-1-1-1-1-1-1-1-1--|
2-2-2-2-2-2-2-2-0-0-0-0-0-0-0-0-0-0-0-0-0-0-0-0-2-2-2-2-2-2-2-2--|
0-0-0-0-0-0-0-0-2-2-2-2-2-2-2-2-2-2-2-2-2-2-2-2-2-2-2-2-2-2-2-2--|
----------------3-3-3-3-3-3-3-3-2-2-2-2-2-2-2-2-0-0-0-0-0-0-0-0--|
--------------------------------0-0-0-0-0-0-0-0------------------|
(1st and 2nd time)
  I-------------just wanna------go home---------Homebound------
Related for V5 - Homebound tab