Song name
# A B C D E F G H I J K L M N O P Q R S T U V W X Y Z

Misc Unsigned Bands - Minimum Wage - Minimum Wage tab

INTRO   GUITAR - DISTORTED

E|--------------------------------G
B|--------------------------------U
G|---------------10---------------I 
D|-7-7-7-7-7-7-7-10---------------T
A|-7-7-7-7-7-7-7-8----------------A
E|-5-5-5-5-5-5-5------------------R

G|------------------------B
D|------------------------A
A|---------------8--------S
E|-5-5-5-5-5-5-5----------S

VERSES 

E|------------------------------------------------------G
B|------------------------------------------------------U
G|---------------10------------------7-7-7-7-7-7-7-7-10-I 
D|-7-7-7-7-7-7-7-10-7-7-7-7-7-7-7-7--7-7-7-7-7-7-7-7-10-T
A|-7-7-7-7-7-7-7-8--7-7-7-7-7-7-7-7--5-5-5-5-5-5-5-5-8--A
E|-5-5-5-5-5-5-5----5-5-5-5-5-5-5-5---------------------R

  |-PALM MUTED-|   |--------------PALM MUTED--------|

G|------------------------------------------------------B
D|------------------------------------------------------A
A|---------------8-------------------5-5-5-5-5-5-5-5-8--S
E|-5-5-5-5-5-5-5----5-5-5-5-5-5-5-5---------------------S

CHORUS 

E|------------------------------------G
B|------------------------------------U
G|-10-10-10-10-10-10------------------I 
D|-10-10-10-10-10-10--7--7--7--7--7-7-T
A|-8--8--8--8--8--8---7--7--7--7--7-7-A
E|--------------------5--5--5--5--5-5-R


G|------------------------------------B 
D|------------------------------------A
A|-8--8--8--8--8--8-------------------S
E|--------------------5--5--5--5--5-5-S

Tap to rate this tab
# A B C D E F G H I J K L M N O P Q R S T U V W X Y Z