Song name
# A B C D E F G H I J K L M N O P Q R S T U V W X Y Z

Misc Unsigned Bands - Depot-bomb - Through Insanity tab

P.H - pinched harmonic
~ - Vibrato

E|----7h8p7p0----5h7p5p0---3-3-3-3-5-5-2-0---|
B|-------------------------------------------|
G|-------------------------------------------|
D|-------------------------------------------|   x2
A|-------------------------------------------|
E|-------------------------------------------|

E|----7h8p7p0----5h7p5p0---0-0-0-0-8-7-5-3p2-|
B|-------------------------------------------|
G|-------------------------------------------|
D|-------------------------------------------| 
A|-------------------------------------------|
E|-------------------------------------------|


      Verse
E|-------------------------------------------|
B|-------------------------------------------|
G|-------------------------------------------|
D|---2------10-------4--------7-----5----2---| X2
A|---2------10-------4--------7-----5----2---|
E|---0------8--------2--------5-----3----0---|


Chorus
E|-------------------------------------|
B|-------------------------------------|
G|-------------------------------------|
D|---2---------------------------------|   x 4
A|---2---------------------------------|
E|---0-0-0-0-0-0-0-0-0-0-0-0-5~---3p2--|
                            P.H


   Solo
E|-------------15--------------------------------|
B|-----------12--12------------------------------|
G|---------12------14----------------------------|
D|-------14----------12--------------------------| x2
A|-----14--------------14------------------------|
E|---12------------------15-14-12~~~-------------|
  SWEEP PICKING!:::::::::::


Intro
Verse
Chorus
verse
Chorus
solo
chorus
chorus



Jake.wright@hotmail.co.uk
Tap to rate this tab
 
# A B C D E F G H I J K L M N O P Q R S T U V W X Y Z