Song name
# A B C D E F G H I J K L M N O P Q R S T U V W X Y Z

Misc Unsigned Bands - Kurbhead - Cause You Never Could tab

Cause you never could

Keep repeating this
Cause You Never Could Tab:
m=mute the note before it
s=slide


verse: Guitar 1 and Guitar 2 play
----0m0m0-3m3m3---------------------|
----2m2m2-5m5m5-33-222--------------|
----2m2m2-5m5m5-55-444--------------|
-----------------------55-444-------|
------------------------------------|
------------------------------------|
repeat this 6x on first verse but 4x on others

Chorus:

Guitar 1 plays
--22s55-22s55-22s55-------------------|
--44s77-44s77-44s77-55555555----------|
--44s77-44s77-44s77-77777777----------|
--------------------------77777777----|
--------------------------------------|
--------------------------------------|
repeat this once

Guitar 2 plays
---------------------------------------------------|
-9--9--9-9-9-9--9-9x3-1212121212121212-------------|
---------------------------------------------------|
1111111111111111x3-1414141414141414
--------------------------------------------------|
--------------------------------------------------|

Solo:Guitar 1
------------------------------------------------------|
---------987--------------------987-------------------|
--9797------9797-----9797----------9797---------------|
----------------------9--------------7--------987-----|
------------------------------------------------------|
------------------------------------------------------|

Solo:Guitar 2
--0-2s4-7------------------------------------------------------------------------------------|
-----------4-7-------------------------------------------------------------------------------|
---------------4s6-9-------------------------------------------------------------------------|
---------------------6-9s12------------------------------------------------------------------|
----------------------------9-12--------------------------14-12--------14-12-----------------|
---------------------------------9-12-14141414-14-12--------14-12---------12-14-15-17-19-21--|
Tap to rate this tab
# A B C D E F G H I J K L M N O P Q R S T U V W X Y Z