Song name
# A B C D E F G H I J K L M N O P Q R S T U V W X Y Z

Misc Unsigned Bands - Chelsea Opened Wide - No Vegetables tab

#----------------------------------PLEASE NOTE--------------------------------#
#This file is the author's own work and represents their interpretation of the#
#song. You may only use this file for private study, scholarship, or research.#
#-----------------------------------------------------------------------------#
#-- File created with Instab - http://www.pconline.com/~smcarey/instab.html --#
#-----------------------------------------------------------------------------#

Author/Artist: CHELSEA OPENED WIDE
Title: NO VEGATABLES (GLAZED DONUTS)
Album: UNRELEASED
----2-2-2-2-^--/3^^^^--3----2^^^--2^-/-3^^^-3----2^^^-2-2-2-2-^--/-3----------|
----2-2-2-2-^--/3^^^^---3---2^^^--2^-/-3^^^--3---2^^^-2-2-2-2-^--/-3----------|
----2-2-2-2-^--/3^^^^----3--2^^^--2^-/-3^^^---3--2^^^-2-2-2-2-^--/-3----------|
------------------------------------------------------------------------------|
------------------------------------------------------------------------------|
------------------------------------------------------------------------------|
                         phi sigs like glazed donuts.   they like glazed donuts


----2-2-2-2-^--/3^^^^--3----2^^^--2^-/-3^^^-3----2^^^-2-2-2-2-^--/-3----------|
----2-2-2-2-^--/3^^^^---3---2^^^--2^-/-3^^^--3---2^^^-2-2-2-2-^--/-3----------|
----2-2-2-2-^--/3^^^^----3--2^^^--2^-/-3^^^---3--2^^^-2-2-2-2-^--/-3----------|
------------------------------------------------------------------------------|
------------------------------------------------------------------------------|
------------------------------------------------------------------------------|
         no vegatables        they just like donuts

repeat
Tap to rate this tab
 
# A B C D E F G H I J K L M N O P Q R S T U V W X Y Z