Song name
# A B C D E F G H I J K L M N O P Q R S T U V W X Y Z

Misc Unsigned Bands - Chelsea Opened Wide - Drips From Above tab

#----------------------------------PLEASE NOTE--------------------------------#
#This file is the author's own work and represents their interpretation of the#
#song. You may only use this file for private study, scholarship, or research.#
#-----------------------------------------------------------------------------#

Author/Artist: CHELSEA OPENED WIDE
Title: DRIPS FROM ABOVE
Album: UNRELEASED
-------------------------------------------------------------------------------|
-------------------------------------------------------------------------------|
-------------5----------------5----7-------------------------------------------|
-2---5---2---5-----2-2--5--2--5----7------let ring-----------------------------|
-2---5---2---3-----2-2--5--2--3----5-------------------------------------------|
-0---3---0---------0-0--3--0---------------------------------------------------|

-------------------------------------------------------------------------------|
-------------------------------------------------------------------------------|
-------------5----------------5----7-------------------------------------------|
-2---5---2---5-----2-2--5--2--5----7-----let ring------------------------------|
-2---5---2---3-----2-2--5--2--3----5-------------------------------------------|
-0---3---0---------0-0--3--0---------------------------------------------------|

repeat over and over
Tap to rate this tab
 
# A B C D E F G H I J K L M N O P Q R S T U V W X Y Z