Guitaretab - guitar tabs
Song name
# A B C D E F G H I J K L M N O P Q R S T U V W X Y Z

Misc Unsigned Bands - Forces Of Fate - Her Tears tab

                           "HER TEARS"
               written and composed by: Forces of Fate
           tabbed by: Tony Martin [guitarists/melodic vocals]


          |--------------------------------------------------|
          |    I didnt tab it the exact way i played it      |
          |   but its pretty close. for example, on the      |
          |   verse's i strummed instead straight down       |
          |    strumming, its mor a  v v ^ v ^ v ^ v         |
          |--------------------------------------------------|

               *Tab is in standard E tuning*
                     [E,A,D,G,B,E]


  /= slide
  h = hammer on
  x = muted
  []= repeat
[ Tab from: http://www.guitaretab.com/m/misc-unsigned-bands/90923.html ]
  INTRO PLAY CLEAN
 E--------------------------------------------------------------|
 B--------------------------------------------------------------|
 G---5----5----5----5-/--7----7----7----7----5----5----5----5---|
 D--3----3----3----3-/--5----5----5----5----7----7----7----7----|
 A--------------------------------------------------------------|
 E--------------------------------------------------------------|
 -
 E--------------------------------------------------------------|
 B--------------------------------------------------------------|
 G---5----5----5----5----5----5----5----5-/--7----7----7----7---|
 D--3----3----3----3----3----3----3----3-/--5----5----5----5----|
 A--------------------------------------------------------------|
 E--------------------------------------------------------------|

 E---------------------------------------|
 B---------------------------------------|
 G---5----5----5----5----5----4--Let ring|
 D--7----7----7----7----3----3-----------|
 A---------------------------------------|
 E---------------------------------------|


  Bridge Play distorted [both rythm and lead guitars]

 E-----------------------------------------------------------|
 B---0-0-0-0-0-0-0-0----0-0-0-0-0-0-0-0---0-0-0-0-0-0-0-0----|
 G---5-5-5-5-5-5-5-5-/--7-7-7-7-7-7-7-7---5-5-5-5-5-5-5-5----|
 D---3-3-3-3-3-3-3-3/---5-5-5-5-5-5-5-5---7-7-7-7-7-7-7-7----|
 A---0-0-0-0-0-0-0-0----0-0-0-0-0-0-0-0---0-0-0-0-0-0-0-0----|
 E-----------------------------------------------------------|

 E--------------------------------------------------------------------|
 B---0-0-0-0-0-0-0-0----0-0-0-0-0-0-0-0---0-0-0-0-0-0-0-0--0--0-0---0-|
 G---5-5-5-5-5-5-5-5-/--7-7-7-7-7-7-7-7---5-5-5-5-5-5-5-5--0--5-5-/-4-|let
 D---3-3-3-3-3-3-3-3/---5-5-5-5-5-5-5-5---7-7-7-7-7-7-7-7--0--3-3/--2-|ring
 A---0-0-0-0-0-0-0-0----0-0-0-0-0-0-0-0---0-0-0-0-0-0-0-0--0--0-0---0-|
 E--------------------------------------------------------------------|
Related for Forces Of Fate - Her Tears tab