Song name
# A B C D E F G H I J K L M N O P Q R S T U V W X Y Z

Misc Unsigned Bands - Curbside Sunset - Fancy Words For Plain Confusion tab

song by: aj todd and tony sablan (curbside sunset)


[INTRO]

e---------------------------    -----------0----------------|
B---333-333-333-333320----      ---333-333-3----------------|
G--0---0---0---0------------    --0---0----0----------------|
D--------------------------- 3x ----------------------------|
A---------------------------    ----------------------------|
E---------------------------    ----------------------------|

[VERSE]

e---------------------------    -----------0----------------|
B---333-333-333-333320------    ---333-333-3----------------|
G--0---0---0---0------------    --0---0----0----------------|
D--------------------------- 3x ----------------------------|
A---------------------------    ----------------------------|
E---------------------------    ----------------------------|

[PRE CHORUS] STRUM

 Cadd9       (and somewhere deep in your heart...)

e--3------3------------------------------------|
B--3------3------------------------------------|
G--0------0------------------------------------| 3X
D--2------2------------------------------------|
A--3------2------------------------------------|
E----------------------------------------------|

[CHORUS]STRUM

   G    Cadd9  (overwhelmingly sick and fatigued...)

e--3------3-----------------------------------------|
B--3------3-----------------------------------------|
G--0------0-----------------------------------------| 2X
D--0------2-----------------------------------------|
A--2------3-----------------------------------------|
E--3------------------------------------------------|

[VERSE] [INTRO RIFF]

          (your flying so high, you shine like the moon...)
e-3-X-X-X-3-X-X-X-3-X-X-X-3-3-3--3-X-X-X-3-X-X-X-3-X-X-X-3-3-3------|
B-3-X-X-X-3-X-X-X-3-X-X-X-3-3-3--3-X-X-X-3-X-X-X-3-X-X-X-3-3-3------|
G-0-X-X-X-0-X-X-X-0-X-X-X-0-0-0--0-X-X-X-0-X-X-X-0-X-X-X-0-0-0------|
D-2-X-X-X-2-X-X-X-2-X-X-X-2-2-2--2-X-X-X-2-X-X-X-2-X-X-X-2-2-2------|
A-3-X-X-X-3-X-X-X-3-X-X-X-3-3-3--2-X-X-X-2-X-X-X-2-X-X-X-2-2-2------|
E---X-X-X---X-X-X---X-X-X----------X-X-X---X-X-X---X-X-X------------|

   [PRE CHORUS]
   [CHORUS]
   [BRIDGE/INTRO]
   [CHORUS]
   [ENDING/INTRO]
Tap to rate this tab
# A B C D E F G H I J K L M N O P Q R S T U V W X Y Z