Song name
# A B C D E F G H I J K L M N O P Q R S T U V W X Y Z

Misc Unsigned Bands - Axiom Uprise - Dan And Dannys Song tab

Lead- Dan Standard tuning
Rythem-Danny Standard Tuning

Intro
E|-----------------------------------------------------------------------------|
B|-----------------------------------------------------------------------------|
G|---10-10-10-10-10-10-10-10-10-10---------------------------------------------|
D|---0--0--0--0--0--8--8--8--8--8--10-10-10-10-10------------------------------|X 2
A|---------------------------------8--8--8--8--8--10-10-10-10-10*--------------|
D|------------------------------------------------8--8--8--8--8----------------|
Second time: rythem hits * till chorus



CHORUS
E|-----------------------------------------------------------------------------|
B|-----------------------------------------------------------------------------|
G|-10------------------10------------------------------------------------------|
D|-8------8------------8----10-------------------------------------------------|
A|-8------6------------8----8--------------------------------------------------|
D|--------6-----------------8--------------------------------------------------|
fill in as many stums as needed

verse
E|-----------------------------------------------------------------------------|
B|-----------------------------------------------------------------------------|
G|---10-10-10-10-10-10-10-10-10-10---------------------------------------------|
D|---0--0--0--0--0--8--8--8--8--8--10-10-/12-10-10-----------------------------|X 2
A|---------------------------------8--8--/10--8--8--10-10-10-10-10*------------|
D|--------------------------------------------------8--8--8--8--8--------------|


SOLO-Guitar 1 (lead)
E|--------------------------------------------------------------------|
B|--------------------------------------------------------------------|
G|7/9-----11-12-11-------9p7----12-11-9-12-11-9-9p7h9---11-12-11------|
D|-----------------12--------9-----------------------------------12---|
A|--------------------------------------------------------------------|
E|--------------------------------------------------------------------|

E|---------------------|
B|10-10-10-10/12-12-15b|
G|---------------------|
D|---------------------|
A|---------------------|
E|---------------------|

Rythem plays this in the background
E|-------------------------------|
B|-------------------------------|
G|-------------------------------|
D|9-9--9-9-9--9-11-12-11---------|
A|7-7--7-7-7--7-9--10-9--12-12-12|
E|-----------------------10-10-10|

Song order:
Intro
Chorus
Verse1
Chorus
Verse 2
Solo
Chorus
Outro (the intro played again)

i didnt tab in all the fills and palm mutes so it is going to look pretty plain.




Tap to rate this tab
 
# A B C D E F G H I J K L M N O P Q R S T U V W X Y Z