Song name
# A B C D E F G H I J K L M N O P Q R S T U V W X Y Z

Misc Unsigned Bands - The Missing Brains - Archangel tab

Help us improve GuitareTab! Take a short survey!
Band: The Missing Brains (Samhain cover)
Album: Initium
Song: Archangel

tabbed by jester.  (jxexsxtxexr@aim.com)

Tuning: Normal

Part 1:
E---------------------------------------|
B---------------------------------------|
G---------------------------------------|
D-7-7--7---------------------7-7-7------|
A-5-5--5----7-7--7---2-2--2--5-5-5------|
E-----------5-5--5---0-0--0-------------|     x2
(i usually palm mute it before i switch strings.)

Part 2:
E---------------------|
B---------------------|
G---------------------|
D-77---44---55---77---|
A-55---22---33---55---|
E---------------------|  x2

Part 1 x6

Part 2 x2

Part 1 x4

Part 2 x2

Part 1 x2

Riff 3:
E---------------------------------|
B---------------------------------|
G---------------------------------|
D-------77777---------------------|
A-55555-55555--------------777777-|
E-33333-------x3-----------555555-|

Part 1 till end.

Solo/outro -palm mute and bend the notes.
E------------------------|
B-14---------------------|
G-12---------------------|
D-12---------------------|
A------------------------|
E------------------------|

trying to redo the solo part. keep ya posted!
Related for The Missing Brains - Archangel tab