Song name
# A B C D E F G H I J K L M N O P Q R S T U V W X Y Z

Misc Unsigned Bands - The Valkrye - Pretty Face tab

Help us improve GuitareTab! Take a short survey!
Artist:The Valkryie
Song:Pretty Face

Tabbed By:Niko Grow
Email: dilingerjon@yahoo.com

Tuning (EBGDAE)

Intro/Verse (4X)
E|------------------------------------------------|
B|----0-----0-----0-----0-----0-----0-----0-----3-|
G|---0-0---0-0---0-0---0-0---0-0---0-0---0-0---0--|
D|--9---9-9---9-7---7-7---7-5---5-5---5-2---2-2---|
A|-7-----7-----5-----5-----3-----3-----0-----0----|
E|------------------------------------------------|

Pre-Chorus
E|------------------------------------------|
B|------------------------------------------|
G|------------------------------------------|
D|-9999999999777777777755555555552222222222-|
A|-7777777777555555555533333333333333333333-|
E|------------------------------------------|
   xxxxxxxxxxxxxxxxxxxxxxxxxxxxxxxx

Chorus (2x)
E|-----------------------|
B|-----------------------|
G|-----------------------|
D|-999999774445555555522-|
A|-777777555553333333333-|
E|-----------------------|

Verse
E|------------------------------------------------|
B|----0-----0-----0-----0-----0-----0-----0-----3-|
G|---0-0---0-0---0-0---0-0---0-0---0-0---0-0---0--|
D|--9---9-9---9-7---7-7---7-5---5-5---5-2---2-2---|
A|-7-----7-----5-----5-----3-----3-----0-----0----|
E|------------------------------------------------|

Pre-Chorus
E|------------------------------------------|
B|------------------------------------------|
G|------------------------------------------|
D|-9999999999777777777755555555552222222222-|
A|-7777777777555555555533333333333333333333-|
E|------------------------------------------|
   xxxxxxxxxxxxxxxxxxxxxxxxxxxxxxxx

Chorus (2x)
E|-----------------------|
B|-----------------------|
G|-----------------------|
D|-999999774445555555522-|
A|-777777555553333333333-|
E|-----------------------|

Bridge 1 (2x)
E|--------------------------|
B|--------------------------|
G|--------------------------|
D|-777777555555444444222222-|
A|-999999777777555555333333-|
E|--------------------------|

Bridge 2 (2x)
E|--------------------------------------------|
B|--------------------------------------------|
G|--------------------------------------------|
D|-777777-9-9-9-9-9-9101010101010-9-9-9-9-9-9-|
A|-999999101010101010121212121212101010101010-|
E|--------------------------------------------|

Verse (1x)
E|------------------------------------------------|
B|----0-----0-----0-----0-----0-----0-----0-----3-|
G|---0-0---0-0---0-0---0-0---0-0---0-0---0-0---0--|
D|--9---9-9---9-7---7-7---7-5---5-5---5-2---2-2---|
A|-7-----7-----5-----5-----3-----3-----0-----0----|
E|------------------------------------------------|

Chorus (2x)
E|-----------------------|
B|-----------------------|
G|-----------------------|
D|-999999774445555555522-|
A|-777777555553333333333-|
E|-----------------------|

Outro (1x)
E|----0---0---0---0---0---0~-|
B|---------------------------|
G|---0---0---0---0---0---0---|
D|--7---7---5---5---2---2----|
A|-5---5---3---3---0---0-----|
E|---------------------------|

| x Palm Mute
| ~ Hold Note 
Related for The Valkrye - Pretty Face tab