Song name
# A B C D E F G H I J K L M N O P Q R S T U V W X Y Z

Misc Unsigned Bands - Blank 45s - Sewn Open tab


E--------------------------------------------------------------------|
B--------------------------------------------------------------------|
G--------------------------------------------------------------------|
D--0-0-0-----8-8-8-8-----5-5-5-5-----3-3-3-3-------------------------|
A--0-0-0-----8-8-8-8-----5-5-5-5-----3-3-3-3-3h5-5-5-----------------| (2x)
D--0-0-0-8p7-8-8-8-8-8p7-5-5-5-5-8p5-3-3-3-3-------------------------|
     . .       . . .       . . .       . . .


E--------------------------------------------------------------------|
B--------------------------------------------------------------------|
G--------------------------------------------------------------------|
D--0-0-0-----8-8-8-8-----5-5-5-5-----3-3-3-3-------------------------|
A--0-0-0-----8-8-8-8-----5-5-5-5-----3-3-3-3-3h5-5-5-----------------| (2x)
D--0-0-0-8p7-8-8-8-8-8p7-5-5-5-5-8p5-3-3-3-3-------------------------|

E--------------------------------------------------------------------|
B--------------------------------------------------------------------|
G--------------------------------------------------------------------|
D-0--------5-3-0---0-------5-7-0--0--------5-3-0--777777777555555----|  (2x)
A-0-(16x)--5-3-0---0-(16x)-5-7-0--0-(16x)--5-3-0--777777777555555----|
D-0--------5-3-0---0-------5-7-0--0--------5-3-0--777777777555555----|
  .                .              .

OCTAVE PART THING

E--------------------------------------------------------------------|
B--------------------------------------------------------------------|
G--7--------8-------5--------7---------------------------------------|
D--X-(16X)--X-(16X)-X-(16X)--X-(16X)---------------------------------|  (2X)
A--5--------5-------3--------5---------------------------------------|
D--------------------------------------------------------------------|


CHORUS


E--------------------------------------------------------------------|
B--------------------------------------------------------------------|
G--2---5-------------------------------------------------------------|
D--2---5---5---3-----------------------------------------------------|
A--0---3---5---3-----------------------------------------------------|
D----------5---3-----------------------------------------------------|
PLAY THIS TWICE THE FIRST TIME AND 3 TIMES THE SECOND


RHYTHM GUITAR PART BEHIND THE SOLO

E--------------------------------------------------------------------|
B--------------------------------------------------------------------|
G--------------------------------------------------------------------|
D--0-0-0-----8-8-8-8-----5-5-5-5-----3-3-3-3-------------------------|
A--0-0-0-----8-8-8-8-----5-5-5-5-----3-3-3-3-3h5-5-5-----------------| (2x)
D--0-0-0-8p7-8-8-8-8-8p7-5-5-5-5-8p5-3-3-3-3-------------------------|
     . .       . . .       . . .       . . .


E--------------------------------------------------------------------|
B--------------------------------------------------------------------|
G--------------------------------------------------------------------|
D--0-0-0-----8-8-8-8-----5-5-5-5-----3-3-3-3-------------------------|
A--0-0-0-----8-8-8-8-----5-5-5-5-----3-3-3-3-3h5-5-5-----------------| (2x)
D--0-0-0-8p7-8-8-8-8-8p7-5-5-5-5-8p5-3-3-3-3-------------------------|

E--------------------------------------------------------------------|
B--------------------------------------------------------------------|
G---------7-7-7-7---------8-8-8-8---------5-5-5-5---------7-7-7-7----|
D--0-0-0--X-X-X-X--0-0-0--X-X-X-X--3-3-3--X-X-X-X--5-5-5--X-X-X-X----|
A--0-0-0--5-5-5-5--0-0-0--5-5-5-5--3-3-3--3-3-3-3--5-5-5--5-5-5-5----|
D--0-0-0-----------0-0-0-----------3-3-3-----------5-5-5-------------|
Tap to rate this tab
 
# A B C D E F G H I J K L M N O P Q R S T U V W X Y Z