Song name
# A B C D E F G H I J K L M N O P Q R S T U V W X Y Z

Misc Unsigned Bands - Blank 45s - Battery tab

Help us improve GuitareTab! Take a short survey!
E--------------------------------------------------------------------|
B--------------------------------------------------------------------|
G--------------------------------------------------------------------|
D--5-5h7--7-7-7----3-------------------------------------------------|
A--5-5h7--7-7-7----3-------------------------------------------------|
D--5-5h7--7-7-7----3-------------------------------------------------|
          . . .

E--------------------------------------------------------------------|
B--------------------------------------------------------------------|
G--------------------------------------------------------------------|
D-5h7-7-------3------2--------------1--------------------------------| (8x)
A-5h7-7-(15x)-3-(8x)-2-(8x)---------1--------------------------------|
D-5h7-7-------3------2--------------1--------------------------------|
                                    play on the last time


E--------------------------------------------------------------------|
B--------------------------------------------------------------------|
G--------------------------------------------------------------------|
D--7------8-7-5-7-5-----8------5-------------------------------------| 2X
A--5-(8X)-----------7---8-(8X)-5-(8X)--------------------------------|
D-----------------------8------5-------------------------------------|
   .                    .      .
E--------------------------------------------------------------------|
B--------------------------------------------------------------------|
G--------------------------------------------------------------------|
D--7--------------------8------5-------------------------------------| 2X
A--5-(8X)---------------8-(8X)-5-(8X)--------------------------------|
D-----------------------8------5-------------------------------------|

E------------------------------------------------------------------------|
B------------------------------------------------------------------------|
G------------------------------------------------------------------------|
D---5h7-7-7-7--7-7-7-7-5--3-3-3-3-3--3-3-3-3-2----------1----------------|  6x
A---5h7-7-7-7--7-7-7-7-5--3-3-3-3-3--3-3-3-3-2----------1----------------|
D---5h7-7-7-7--7-7-7-7-5--3-3-3-3-3--3-3-3-3-2----------1----------------|
        . .    . . .      . . . .    . . . .            play on last time


E--------------------------------------------------------------------|
B--------------------------------------------------------------------|
G--------------------------------------------------------------------|
D--5-5h7-7-7-7-7-7-7-7-7-7-------------------------------------------| 3x
A--5-5h7-7-7-7-7-7-7-7-7-7-------------------------------------------|
D--5-5h7-7-7-7-7-7-7-7-7-7-------------------------------------------|
         . .   . .   . .

E--------------------------------------------------------------------|
B--------------------------------------------------------------------|
G--------------------------------------------------------------------|
D--5-5h7-7-7-7-7-7-7-------------------------------------------------|
A--5-5h7-7-7-7-7-7-7-------------------------------------------------|
D--5-5h7-7-7-7-7-7-7-------------------------------------------------|
         . .   . .
Related for Blank 45s - Battery tab