Song name
# A B C D E F G H I J K L M N O P Q R S T U V W X Y Z

Misc Unsigned Bands - Blank 45s - Fuck You Sam tab

PICK SLIDE UP

E--------------------------------------------------------------------|
B------------------5/7--7-7------------------------------------------|
G------------------x/x--x-x------------------------------------------|
D-0-0-0--8p7p0-3h5-3/5--5-5------------------------------------------|
A-0-0-0--8p7p0-3h5---------------------------------------------------|
D-0-0-0--8p7p0-3h5---------------------------------------------------|


E--------------------------------------------------------------------|
B------------------5/3--3-3------------------------------------------|
G------------------x/x--x-x------------------------------------------|
D-0-0-0--8p7p0-3h5-3/1--1-1------------------------------------------|
A-0-0-0--8p7p0-3h5---------------------------------------------------|
D-0-0-0--8p7p0-3h5---------------------------------------------------|


E--------------------------------------------------------------------|
B------------------5/7--7-7-----5-------3----------------------------|
G------------------x/x--x-x-----x-(10x)-x-(6x)-----------------------|
D-0-0-0--8p7p0-3h5-3/5--5-5-----3-------1----------------------------|
A-0-0-0--8p7p0-3h5---------------------------------------------------|
D-0-0-0--8p7p0-3h5---------------------------------------------------|

PLAY THAT WHOLE THING TWICE


E--------------------------------------------------------------------|
B--------------------------------------------------------------------|
G--------------------------------------------------------------------|
D-0-0-0-0-0-0------5------5p3-3-(6x)-----2-(6x)--2h3-3---------------| 2x
A-0-0-0-0-0-0--3h5-3-(6x)-----1------3p1-0---------------------------|
D-0-0-0-0-0-0--------------------------------------------------------|


E--------------------------------------------------------------------|
B--------------------------------------------------------------------|
G--------------------------------------------------------------------|
D-0-0-0-0-0-0------5----------3-(6x)-----2-(6x)--2h3-3---------------| 2x
A-0-0-0-0-0-0------3-(6x)-----1----------0---------------------------|
D-0-0-0-0-0-0--------------------------------------------------------|
Tap to rate this tab
# A B C D E F G H I J K L M N O P Q R S T U V W X Y Z