Song name
# A B C D E F G H I J K L M N O P Q R S T U V W X Y Z

Misc Unsigned Bands - Blank 45s - Crucified tab

Help us improve GuitareTab! Take a short survey!
E----------------------------------------------------------------------|
B----------------------------------------------------------------------|
G----------------------------------------------------------------------|
D-0-0-8-7--0-0-5-3-2-3--0-0-8-7--0-0-5-3-5-----------------------------|
A-0-0-8-7--0-0-5-3-2-3--0-0-8-7--0-0-5-3-3-----------------------------|
D-0-0-8-7--0-0-5-3-2-3--0-0-8-7--0-0-5-3-------------------------------|


E----------------------------------------------------------------------|
B----------------------------------------------------------------------|
G----------------------------------------------------------------------|
D-0-0-8-7--0-0-5-3-2-3--0-0-8-7--0-0-5-3-5-1---------------------------|
A-0-0-8-7--0-0-5-3-2-3--0-0-8-7--0-0-5-3-3-3---------------------------|
D-0-0-8-7--0-0-5-3-2-3--0-0-8-7--0-0-5-3-------------------------------|

play that twice


E----------------------------------------------------------------------|
B----------------------------------------------------------------------|
G-------------------------------------------3*-------------------------|
D-0-0-2h3p2-0-0-5-3-2-3--0-0-2h3p2--0-0-5-3----------------------------|
A-0-0-------0-0----------0-0--------0-0--------------------------------|
D-0-0-------0-0----------0-0--------0-0--------------------------------|
  . .       . .          . .        . .

E----------------------------------------------------------------------|
B----------------------------------------------------------------------|
G----------------------------------------------------------------------|
D-0-0-2h3p2-0-0-5-3-2-3--0-0-2h3p2--0-0-5-3-2-3----5--3----------------|
A-0-0-------0-0----------0-0--------0-0------------3--1----------------|
D-0-0-------0-0----------0-0--------0-0--------------------------------|
  . .       . .          . .        . .

YEP PLAY THAT TWICE TOO


E----------------------------------------------------------------------|
B----------------------------------------------------------------------|
G----------5--3--------------------------5-3---------------------------|
D-0-0-0-0--3--1--7-7-7-7--8-5---0-0-0-0--3-1--7--5--8------------------|
A-0-0-0-0--------7-7-7-7--8-5---0-0-0-0-------7--5--8------------------|
D-0-0-0-0--------7-7-7-7--8-5---0-0-0-0-------7--5--8------------------|
    . .            . .            . .
TWICE

SINGING PART


E------------------------------------------------------------------------|
B------------------------------------------------------------------------|
G------------------------------------------------------------------------|
D-0--5--3---7-8-5---0--5-3---7-8-5---------------------------------------|
A-0--3--1---7-8-5---0--3-1---7-8-5---------------------------------------|
D-0---------7-8-5---0--------7-8-5---------------------------------------|

E----------------------------------------------------------------------|
B----------------------------------------------------------------------|
G----------------------------------------------------------------------|
D-0------3-2-3-5-3-2-0--5--------3------3------------------------------|
A-0-(8X)-3-2-3-5-3-2-0--3-(16X)--5-(8X)-1-(8X)-------------------------|
D-0------3-2-3-5-3-2-0-------------------------------------------------|
  .                              PLAY THIS THE SECOND TIME


E------------------------------------------------------------------------|
B------6--------------------------4--------------------------------------|
G------9--------------------------7--------------------------------------|
D-0-0--0--0-0--3-----2--------0-0-0---5------7-5-3-5-2-------------------|
A-0-0-----0-0--3-(8X)2-(8X)---0-0-----5-(6X)-7-5-3-5-2-------------------|
D-0-0-----0-0--3-----2--------0-0-----5------7-5-3-5-2-------------------|
 (  4X  )                    (  4X )
PLAY TWICE


E----------------------------------------------------------------------|
B----------------------------------------------------------------------|
G----------------------------------------------------------------------|
E--0------0-0-----0-0--------------------------------------------------|
B--0--5-7-0-0-8-7-0-0-5-3----------------------------------------------|
G--0------0-0-----0-0--------------------------------------------------|
Related for Blank 45s - Crucified tab