Song name
# A B C D E F G H I J K L M N O P Q R S T U V W X Y Z

Misc Unsigned Bands - Vacant Lot - Breakaway tab

No matter what anyone tells you, this is the EXACT tab for the song.


INTRO:
     E E   B B   D D   A A    
e[---------------------------]
b[---------------------------]
g[---9-9---------7-7---------]   (2x)
d[---9-9---9-9---7-7---7-7---]
a[---7-7---9-9---5-5---7-7---]
e[---------7-7---------5-5---]


VERSE:
 (same as intro, but 8 times and with vocals)
    E E   B B   D D   A A    
e[---------------------------]
b[---------------------------]
g[---9-9---------7-7---------]   (8x)
d[---9-9---9-9---7-7---7-7---]
a[---7-7---9-9---5-5---7-7---]
e[---------7-7---------5-5---]
        
PRE-CHORUS:

    G        AAAA
e[---------------------------]
b[---------------------------]
g[---------------------------]
d[--5--------7777------------]
a[--5--------7777------------]
e[--3--------5555------------]

CHORUS:
    EE  CCC  GGG  BB
e[---------------------------]
b[---------------------------]
g[------555------------------]
d[--99--555--555--99---------] (3x)
a[--99--333--555--99---------]
e[--77-------333--77---------]

    EE  CCC  B  (let ring for 1 measure)
e[---------------------------]
b[---------------------------]
g[------555------------------]
d[--99--555--9---------------]
a[--99--333--9---------------]
e[--77-------7---------------]


Repeat whole song with intro

BREAKDOWN:

e[---------------------------]
b[-----8----8-----8----8-12b-]
g[--99----999--999---99------] (4x)
d[---------------------------]
a[---------------------------]
e[---------------------------]

SOLO:
(2nd and 3rd guitars play chorus while 1st plays solo)



SONG LAYOUT

INTRO
VERSE
PRE-CHOURUS
CHORUS
INTRO
VERSE
PRE-CHORUS
CHORUS 2X
BREAKDOWN
SOLO
CHORUS 2X
END
Tap to rate this tab
# A B C D E F G H I J K L M N O P Q R S T U V W X Y Z