Guitaretab - guitar tabs
Song name
# A B C D E F G H I J K L M N O P Q R S T U V W X Y Z

Misc Unsigned Bands - Organized Chaos - Rewind tab

Rewind
1st guitar Verse		Lyrics come in on third time			6x      (Distorted)
|---------------------------------------------------------|
|---------------------------------------------------------|
|---0----0----0----0----0----0----0-33-0------------------|
|-----22--------22--------22------------------------------|
|-4---------3---------2---------1-------------------------|
|---------------------------------------------------------|
Now youíve left me all a-lone here and I donít know what to do now.
I keep thinking of your pretty face, I just canít stand being unknown.
You left a note on the counter saying that youíd Had enough.
Keep your arms crossed as you walk down on the street we used to live on.

2nd guitar verse	     Corresponds with 2ndís part, but play just as loud	6x
|---------------------------------------------------------|
|---------------------------------------------------------|
|-----0----0----0----0----0----0----0-3-30----------------|
|----2--2-2----2--2-2----2--2-2----2----------------------|
|---4---------3---------2---------1-----------------------|
|---------------------------------------------------------|

Strum Chorus like Jumper
Chorus  (1stĎs part)

Ead9	         Cdad9		G
I canít rewind, whatís left behind, baby canít you see.
[ Tab from: http://www.guitaretab.com/m/misc-unsigned-bands/91154.html ]
Ead9		  Cdad9		    G
Whatís left of me, is too hard to see, by the human eye.

Chorus  (2ndís part)
|----------------------------------------------------------|
|----------------------------------------------------------|
|----------------------------------------------------------|
|--7--7--7--7--------------4--4--4--4----------------------|
|--5--5--5--5--5--5--5--5--2--2--2--2--5--5--5--5----------|
|--------------3--3--3--3--------------3--3--3--3----------|

Verses go again but only 4 times this time.  Vocals start as soon as verse does.  Vocals are:

Now looking back I see that Iím wrong to say what I brought up
I wish I could wipe your tears away please baby forgive me.
And now as you turn your back from me I think Ďbout how I treat you.
Oh, come on now, donít give me that face, you know that itís your fault, too.


Then chorus goes again w/ same vocals and everything but this time 1st  continues with 
four more times.  While doing that, 2nd  plays:
		8x			the he ends it like this (w/ snare possibly?)
|--0-----5-(3--)---|--0-----5-3ó(5---)---------------------|
|----2-3-----------|----2-3-----(6---)---------------------|
|------------------|------------(7---)---------------------|
|------------------|---------------------------------------|
|------------------|---------------------------------------|
|------------------|---------------------------------------|
Related for Organized Chaos - Rewind tab