Song name
# A B C D E F G H I J K L M N O P Q R S T U V W X Y Z

Misc Unsigned Bands - Pondering Phoxes - Run Away To Mars tab

Once again the Pondering phoxes are back. heres another song by the coolest band on earth!!!
in the begining alternately pluck the strings.

e--1-1-1--3-3-3--1-1-1--1-1-1--1-1-1--0-1-0-1-3---------|
b--1-1-1--1-1-1--1-1-1--1-1-1--1-1-1--------------------|
g----------------3-3-3--2-2-2--0-0-0--------------------|
d-------------------------------------------------------|
a-------------------------------------------------------|
e-------------------------------------------------------|
repeat again.

e--1-1-1--3-3-3--1-1-1--1-1-1--1-1-1--0-1-0-1-3---------|
b--1-1-1--1-1-1--1-1-1--1-1-1--1-1-1--------------------|
g----------------3-3-3--2-2-2--0-0-0--------------------|
d-------------------------------------------------------|
a-------------------------------------------------------|
e-------------------------------------------------------|
 then the chords for the chorus are E D and A

the words

You cant fight for something thats not there all along,
but you can do your best to try and right the wrong,
and if it seems that theres more than meets the eye,
then dont jst sit down and watch your dreams go by,

Im at the crossroads of heaven and hell,
if time would let me id go back as well,
some people say you must play fair to get above,
but i think i broke the rules iv fallen in love,

but like a soldier i keep marching on,
aiming at your love with my gun,
my hands on the trigger i am ready to shoot,
but i lay my hands down with the memories of you,

eyes like two needles piercing through my skin,
and acting as if loving you is sin,
if your all alone find a window to my heart,
and we will make it from the start,

now i think it is time for me to go,
im about to run away to mars,
leave earth behind with all of it crimes,
and live my life in the stars,


reapeat last vesr one more time!!
                        - matt
Tap to rate this tab
 
# A B C D E F G H I J K L M N O P Q R S T U V W X Y Z