Song name
# A B C D E F G H I J K L M N O P Q R S T U V W X Y Z

Misc Unsigned Bands - The Detours - Maria tab

Help us improve GuitareTab! Take a short survey!
intro chords
  (A)     (D)     (E)     (D)
-0--0----2--2----0--0----2--2--|         bass enter imidietly after this
-2--2----3--3----0--0----3--3--|
-2--2----2--2----1--1----2--2--|
-2--2----0--0----2--2----0--0--|  (X2)
-0--0----x--x----2--2----x--x--|
-x--x----x--x----0--0----x--x--|

then CASUALY strum the A D E D to match bass part
(witch sean will tab l8er)
intro solo
                                                    full
---------------------------------------------10-12-12b-10--------------10---|
-12-12-12/15-15-15-15-15-12-10h12-10h12-10h12------------12-10-10h11h12--12-|
----------------------------------------------------------------------------|
----------------------------------------------------------------------------|
----------------------------------------------------------------------------|
----------------------------------------------------------------------------|


--------------------------10--12--12/14-12-10h12p10--------------10------|
-------10--10--10--10--12--------------------------12-10-10h11h12--12----|
-8-9-10--11--11--11------------------------------------------------------|
-------------------------------------------------------------------------|
-------------------------------------------------------------------------|
-------------------------------------------------------------------------|

after that play verse

witch is

A A A---D D D---E E E---D D D (x2)

where the dotted line is is where the bass plays 3 strings inbatween each one

then comes the solo...
Related for The Detours - Maria tab